  0
SECTION
  2
HEADER
  9
$ANGBASE
  50
0.0
  9
$ANGDIR
  70
1
  9
$MEASUREMENT
  70
1
  0
ENDSEC
  0
SECTION
  2
TABLES
  0
TABLE
  2
LTYPE
  70
4
  0
LTYPE
  5
40F
  2
CONTINUOUS
  70
0
  3
Solid line
  72
65
  73
0
  40
0.0
  0
LTYPE
  5
410
  2
DASHDOT
 70
0
  3
Dash Dot ____ _ ____ _
 72
65
 73
4
 40
2.0
 49
1.25
 49
-0.25
 49
0.25
 49
-0.25
  0
LTYPE
  5
411
  2
DASHED
 70
0
  3
Dashed __ __ __ __ __
 72
65
 73
2
 40
0.75
 49
0.5
 49
-0.25
  0
LTYPE
  5
43B
  2
DOTTED
 70
0
  3
Dotted .  .  .  .
 72
65
 73
2
 40
0.2
 49
0.0
 49
-0.2
  0
ENDTAB
  0
TABLE
  2
STYLE
  70
4
  0
STYLE
  2
KICAD
  70
0
  40
0
  41
1
  42
1
  50
0
  71
0
  3
isocp.shx
  0
STYLE
  2
KICADB
  70
0
  40
0
  41
1
  42
1
  50
0
  71
0
  3
isocp.shx
  0
STYLE
  2
KICADI
  70
0
  40
0
  41
1
  42
1
  50
15
  71
0
  3
isocp.shx
  0
STYLE
  2
KICADBI
  70
0
  40
0
  41
1
  42
1
  50
15
  71
0
  3
isocp.shx
  0
ENDTAB
  0
TABLE
  2
LAYER
  70
1
  0
LAYER
  2
BLACK
  70
0
  62
7
  6
CONTINUOUS
  0
ENDTAB
  0
ENDSEC
  0
SECTION
  2
ENTITIES
0
LINE
8
BLACK
6
CONTINUOUS
10
216.4644659999999874
20
-81.5105339999999927
11
216.8794279999999901
21
-81.5276939999999968
0
LINE
8
BLACK
6
CONTINUOUS
10
216.8794279999999901
20
-81.5276939999999968
11
217.2915559999999857
21
-81.5790640000000025
0
LINE
8
BLACK
6
CONTINUOUS
10
217.2915559999999857
20
-81.5790640000000025
11
217.6980339999999785
21
-81.6642909999999915
0
LINE
8
BLACK
6
CONTINUOUS
10
217.6980339999999785
20
-81.6642909999999915
11
218.096084999999988
21
-81.7827939999999955
0
LINE
8
BLACK
6
CONTINUOUS
10
218.096084999999988
20
-81.7827939999999955
11
218.4829909999999984
21
-81.9337639999999965
0
LINE
8
BLACK
6
CONTINUOUS
10
218.4829909999999984
20
-81.9337639999999965
11
218.8561079999999777
21
-82.1161680000000018
0
LINE
8
BLACK
6
CONTINUOUS
10
218.8561079999999777
20
-82.1161680000000018
11
219.2128879999999924
21
-82.3287619999999976
0
LINE
8
BLACK
6
CONTINUOUS
10
219.2128879999999924
20
-82.3287619999999976
11
219.5508939999999996
21
-82.5700920000000025
0
LINE
8
BLACK
6
CONTINUOUS
10
219.5508939999999996
20
-82.5700920000000025
11
219.8678159999999764
21
-82.8385109999999969
0
LINE
8
BLACK
6
CONTINUOUS
10
219.8678159999999764
20
-82.8385109999999969
11
220.1614889999999889
21
-83.1321839999999952
0
LINE
8
BLACK
6
CONTINUOUS
10
220.1614889999999889
20
-83.1321839999999952
11
220.4299079999999833
21
-83.4491060000000004
0
LINE
8
BLACK
6
CONTINUOUS
10
220.4299079999999833
20
-83.4491060000000004
11
220.6712379999999882
21
-83.7871119999999934
0
LINE
8
BLACK
6
CONTINUOUS
10
220.6712379999999882
20
-83.7871119999999934
11
220.883831999999984
21
-84.1438919999999939
0
LINE
8
BLACK
6
CONTINUOUS
10
220.883831999999984
20
-84.1438919999999939
11
221.0662360000000035
21
-84.5170090000000016
0
LINE
8
BLACK
6
CONTINUOUS
10
221.0662360000000035
20
-84.5170090000000016
11
221.217205999999976
21
-84.9039149999999978
0
LINE
8
BLACK
6
CONTINUOUS
10
221.217205999999976
20
-84.9039149999999978
11
221.3357089999999801
21
-85.3019659999999931
0
LINE
8
BLACK
6
CONTINUOUS
10
221.3357089999999801
20
-85.3019659999999931
11
221.4209359999999833
21
-85.7084440000000001
0
LINE
8
BLACK
6
CONTINUOUS
10
221.4209359999999833
20
-85.7084440000000001
11
221.4723060000000032
21
-86.1205719999999957
0
LINE
8
BLACK
6
CONTINUOUS
10
221.4723060000000032
20
-86.1205719999999957
11
221.4894659999999931
21
-86.5355339999999984
0
LINE
8
BLACK
6
CONTINUOUS
10
221.4894659999999931
20
-86.5355339999999984
11
221.4894659999999931
21
-127.3355339999999956
0
LINE
8
BLACK
6
CONTINUOUS
10
221.4894659999999931
20
-127.3355339999999956
11
221.47229999999999
21
-127.7504950000000008
0
LINE
8
BLACK
6
CONTINUOUS
10
221.47229999999999
20
-127.7504950000000008
11
221.4209269999999776
21
-128.1626219999999989
0
LINE
8
BLACK
6
CONTINUOUS
10
221.4209269999999776
20
-128.1626219999999989
11
221.3356959999999845
21
-128.5690989999999942
0
LINE
8
BLACK
6
CONTINUOUS
10
221.3356959999999845
20
-128.5690989999999942
11
221.217189999999988
21
-128.9671490000000063
0
LINE
8
BLACK
6
CONTINUOUS
10
221.217189999999988
20
-128.9671490000000063
11
221.0662179999999921
21
-129.3540529999999933
0
LINE
8
BLACK
6
CONTINUOUS
10
221.0662179999999921
20
-129.3540529999999933
11
220.8838119999999776
21
-129.7271690000000035
0
LINE
8
BLACK
6
CONTINUOUS
10
220.8838119999999776
20
-129.7271690000000035
11
220.6712179999999819
21
-130.0839479999999924
0
LINE
8
BLACK
6
CONTINUOUS
10
220.6712179999999819
20
-130.0839479999999924
11
220.429887999999977
21
-130.421953000000002
0
LINE
8
BLACK
6
CONTINUOUS
10
220.429887999999977
20
-130.421953000000002
11
220.16146999999998
21
-130.7388750000000073
0
LINE
8
BLACK
6
CONTINUOUS
10
220.16146999999998
20
-130.7388750000000073
11
219.8677979999999934
21
-131.0325489999999888
0
LINE
8
BLACK
6
CONTINUOUS
10
219.8677979999999934
20
-131.0325489999999888
11
219.5508779999999831
21
-131.3009679999999832
0
LINE
8
BLACK
6
CONTINUOUS
10
219.5508779999999831
20
-131.3009679999999832
11
219.2128749999999968
21
-131.5423009999999806
0
LINE
8
BLACK
6
CONTINUOUS
10
219.2128749999999968
20
-131.5423009999999806
11
218.856096999999977
21
-131.7548969999999997
0
LINE
8
BLACK
6
CONTINUOUS
10
218.856096999999977
20
-131.7548969999999997
11
218.4829829999999902
21
-131.9373049999999807
0
LINE
8
BLACK
6
CONTINUOUS
10
218.4829829999999902
20
-131.9373049999999807
11
218.0960790000000031
21
-132.088279
0
LINE
8
BLACK
6
CONTINUOUS
10
218.0960790000000031
20
-132.088279
11
217.6980299999999886
21
-132.2067879999999889
0
LINE
8
BLACK
6
CONTINUOUS
10
217.6980299999999886
20
-132.2067879999999889
11
217.2915539999999908
21
-132.2920210000000054
0
LINE
8
BLACK
6
CONTINUOUS
10
217.2915539999999908
20
-132.2920210000000054
11
216.8794269999999926
21
-132.3433980000000076
0
LINE
8
BLACK
6
CONTINUOUS
10
216.8794269999999926
20
-132.3433980000000076
11
216.4644659999999874
21
-132.3605660000000057
0
LINE
8
BLACK
6
CONTINUOUS
10
216.4644659999999874
20
-132.3605660000000057
11
216.4644659999999874
21
-132.3605340000000012
0
LINE
8
BLACK
6
CONTINUOUS
10
216.4644659999999874
20
-132.3605340000000012
11
137.5644659999999817
21
-132.3605340000000012
0
LINE
8
BLACK
6
CONTINUOUS
10
137.5644659999999817
20
-132.3605340000000012
11
137.1495060000000024
21
-132.3433679999999981
0
LINE
8
BLACK
6
CONTINUOUS
10
137.1495060000000024
20
-132.3433679999999981
11
136.7373800000000017
21
-132.2919949999999858
0
LINE
8
BLACK
6
CONTINUOUS
10
136.7373800000000017
20
-132.2919949999999858
11
136.3309040000000039
21
-132.2067639999999926
0
LINE
8
BLACK
6
CONTINUOUS
10
136.3309040000000039
20
-132.2067639999999926
11
135.9328549999999893
21
-132.0882569999999987
0
LINE
8
BLACK
6
CONTINUOUS
10
135.9328549999999893
20
-132.0882569999999987
11
135.5459519999999998
21
-131.9372860000000003
0
LINE
8
BLACK
6
CONTINUOUS
10
135.5459519999999998
20
-131.9372860000000003
11
135.172836999999987
21
-131.7548799999999858
0
LINE
8
BLACK
6
CONTINUOUS
10
135.172836999999987
20
-131.7548799999999858
11
134.8160589999999956
21
-131.5422849999999926
0
LINE
8
BLACK
6
CONTINUOUS
10
134.8160589999999956
20
-131.5422849999999926
11
134.4780559999999809
21
-131.3009549999999876
0
LINE
8
BLACK
6
CONTINUOUS
10
134.4780559999999809
20
-131.3009549999999876
11
134.1611359999999991
21
-131.0325359999999932
0
LINE
8
BLACK
6
CONTINUOUS
10
134.1611359999999991
20
-131.0325359999999932
11
133.867463999999984
21
-130.7388640000000066
0
LINE
8
BLACK
6
CONTINUOUS
10
133.867463999999984
20
-130.7388640000000066
11
133.5990449999999896
21
-130.4219439999999963
0
LINE
8
BLACK
6
CONTINUOUS
10
133.5990449999999896
20
-130.4219439999999963
11
133.3577149999999847
21
-130.0839409999999816
0
LINE
8
BLACK
6
CONTINUOUS
10
133.3577149999999847
20
-130.0839409999999816
11
133.1451199999999915
21
-129.7271629999999902
0
LINE
8
BLACK
6
CONTINUOUS
10
133.1451199999999915
20
-129.7271629999999902
11
132.9627140000000054
21
-129.3540480000000059
0
LINE
8
BLACK
6
CONTINUOUS
10
132.9627140000000054
20
-129.3540480000000059
11
132.811743000000007
21
-128.9671449999999879
0
LINE
8
BLACK
6
CONTINUOUS
10
132.811743000000007
20
-128.9671449999999879
11
132.6932359999999846
21
-128.5690960000000018
0
LINE
8
BLACK
6
CONTINUOUS
10
132.6932359999999846
20
-128.5690960000000018
11
132.6080049999999915
21
-128.162620000000004
0
LINE
8
BLACK
6
CONTINUOUS
10
132.6080049999999915
20
-128.162620000000004
11
132.5566320000000076
21
-127.7504939999999891
0
LINE
8
BLACK
6
CONTINUOUS
10
132.5566320000000076
20
-127.7504939999999891
11
132.5394660000000044
21
-127.3355339999999956
0
LINE
8
BLACK
6
CONTINUOUS
10
132.5394660000000044
20
-127.3355339999999956
11
132.5394660000000044
21
-86.5355339999999984
0
LINE
8
BLACK
6
CONTINUOUS
10
132.5394660000000044
20
-86.5355339999999984
11
132.5566220000000044
21
-86.1205709999999982
0
LINE
8
BLACK
6
CONTINUOUS
10
132.5566220000000044
20
-86.1205709999999982
11
132.607988000000006
21
-85.7084419999999909
0
LINE
8
BLACK
6
CONTINUOUS
10
132.607988000000006
20
-85.7084419999999909
11
132.6932129999999859
21
-85.3019620000000032
0
LINE
8
BLACK
6
CONTINUOUS
10
132.6932129999999859
20
-85.3019620000000032
11
132.8117139999999949
21
-84.9039089999999987
0
LINE
8
BLACK
6
CONTINUOUS
10
132.8117139999999949
20
-84.9039089999999987
11
132.9626820000000009
21
-84.5170009999999934
0
LINE
8
BLACK
6
CONTINUOUS
10
132.9626820000000009
20
-84.5170009999999934
11
133.1450859999999921
21
-84.1438819999999907
0
LINE
8
BLACK
6
CONTINUOUS
10
133.1450859999999921
20
-84.1438819999999907
11
133.3576789999999903
21
-83.7871009999999927
0
LINE
8
BLACK
6
CONTINUOUS
10
133.3576789999999903
20
-83.7871009999999927
11
133.5990089999999952
21
-83.4490940000000023
0
LINE
8
BLACK
6
CONTINUOUS
10
133.5990089999999952
20
-83.4490940000000023
11
133.8674279999999897
21
-83.1321709999999996
0
LINE
8
BLACK
6
CONTINUOUS
10
133.8674279999999897
20
-83.1321709999999996
11
134.1611019999999996
21
-82.8384969999999896
0
LINE
8
BLACK
6
CONTINUOUS
10
134.1611019999999996
20
-82.8384969999999896
11
134.4780250000000024
21
-82.5700779999999952
0
LINE
8
BLACK
6
CONTINUOUS
10
134.4780250000000024
20
-82.5700779999999952
11
134.816032000000007
21
-82.3287479999999903
0
LINE
8
BLACK
6
CONTINUOUS
10
134.816032000000007
20
-82.3287479999999903
11
135.1728139999999883
21
-82.116154999999992
0
LINE
8
BLACK
6
CONTINUOUS
10
135.1728139999999883
20
-82.116154999999992
11
135.5459329999999909
21
-81.9337510000000009
0
LINE
8
BLACK
6
CONTINUOUS
10
135.5459329999999909
20
-81.9337510000000009
11
135.9328409999999963
21
-81.7827829999999949
0
LINE
8
BLACK
6
CONTINUOUS
10
135.9328409999999963
20
-81.7827829999999949
11
136.3308940000000007
21
-81.664282
0
LINE
8
BLACK
6
CONTINUOUS
10
136.3308940000000007
20
-81.664282
11
136.7373739999999884
21
-81.5790580000000034
0
LINE
8
BLACK
6
CONTINUOUS
10
136.7373739999999884
20
-81.5790580000000034
11
137.1495029999999815
21
-81.5276920000000018
0
LINE
8
BLACK
6
CONTINUOUS
10
137.1495029999999815
20
-81.5276920000000018
11
137.5644529999999861
21
-81.5105360000000019
0
LINE
8
BLACK
6
CONTINUOUS
10
137.5644529999999861
20
-81.5105360000000019
11
137.5644659999999817
21
-81.5105339999999927
0
LINE
8
BLACK
6
CONTINUOUS
10
137.5644659999999817
20
-81.5105339999999927
11
216.4644659999999874
21
-81.5105339999999927
0
LINE
8
BLACK
6
CONTINUOUS
10
216.4644659999999874
20
-81.5605339999999899
11
137.5644659999999817
21
-81.5605339999999899
0
LINE
8
BLACK
6
CONTINUOUS
10
137.5644659999999817
20
-81.5605339999999899
11
137.5644659999999817
21
-81.560535999999999
0
LINE
8
BLACK
6
CONTINUOUS
10
137.5644659999999817
20
-81.560535999999999
11
137.3586970000000065
21
-81.5605329999999924
0
LINE
8
BLACK
6
CONTINUOUS
10
137.3586970000000065
20
-81.5605329999999924
11
136.9485650000000021
21
-81.5945109999999971
0
LINE
8
BLACK
6
CONTINUOUS
10
136.9485650000000021
20
-81.5945109999999971
11
136.5426410000000033
21
-81.662241999999992
0
LINE
8
BLACK
6
CONTINUOUS
10
136.5426410000000033
20
-81.662241999999992
11
136.1436949999999797
21
-81.7632639999999924
0
LINE
8
BLACK
6
CONTINUOUS
10
136.1436949999999797
20
-81.7632639999999924
11
135.7544560000000047
21
-81.896885999999995
0
LINE
8
BLACK
6
CONTINUOUS
10
135.7544560000000047
20
-81.896885999999995
11
135.3775799999999947
21
-82.0621950000000027
0
LINE
8
BLACK
6
CONTINUOUS
10
135.3775799999999947
20
-82.0621950000000027
11
135.015642999999983
21
-82.2580629999999928
0
LINE
8
BLACK
6
CONTINUOUS
10
135.015642999999983
20
-82.2580629999999928
11
134.6711169999999811
21
-82.4831499999999949
0
LINE
8
BLACK
6
CONTINUOUS
10
134.6711169999999811
20
-82.4831499999999949
11
134.3463559999999859
21
-82.7359209999999905
0
LINE
8
BLACK
6
CONTINUOUS
10
134.3463559999999859
20
-82.7359209999999905
11
134.0435779999999966
21
-83.0146469999999965
0
LINE
8
BLACK
6
CONTINUOUS
10
134.0435779999999966
20
-83.0146469999999965
11
133.7648519999999905
21
-83.3174240000000026
0
LINE
8
BLACK
6
CONTINUOUS
10
133.7648519999999905
20
-83.3174240000000026
11
133.5120819999999924
21
-83.6421849999999978
0
LINE
8
BLACK
6
CONTINUOUS
10
133.5120819999999924
20
-83.6421849999999978
11
133.2869939999999929
21
-83.9867109999999997
0
LINE
8
BLACK
6
CONTINUOUS
10
133.2869939999999929
20
-83.9867109999999997
11
133.0911260000000027
21
-84.3486479999999972
0
LINE
8
BLACK
6
CONTINUOUS
10
133.0911260000000027
20
-84.3486479999999972
11
132.925816999999995
21
-84.725523999999993
0
LINE
8
BLACK
6
CONTINUOUS
10
132.925816999999995
20
-84.725523999999993
11
132.7921949999999924
21
-85.1147639999999939
0
LINE
8
BLACK
6
CONTINUOUS
10
132.7921949999999924
20
-85.1147639999999939
11
132.691172999999992
21
-85.5137089999999915
0
LINE
8
BLACK
6
CONTINUOUS
10
132.691172999999992
20
-85.5137089999999915
11
132.6234409999999855
21
-85.9196329999999904
0
LINE
8
BLACK
6
CONTINUOUS
10
132.6234409999999855
20
-85.9196329999999904
11
132.589462999999995
21
-86.3297649999999948
0
LINE
8
BLACK
6
CONTINUOUS
10
132.589462999999995
20
-86.3297649999999948
11
132.5894659999999874
21
-86.5355339999999984
0
LINE
8
BLACK
6
CONTINUOUS
10
132.5894659999999874
20
-86.5355339999999984
11
132.5894659999999874
21
-127.3355339999999956
0
LINE
8
BLACK
6
CONTINUOUS
10
132.5894659999999874
20
-127.3355339999999956
11
132.5894669999999849
21
-127.54130099999999
0
LINE
8
BLACK
6
CONTINUOUS
10
132.5894669999999849
20
-127.54130099999999
11
132.6234539999999811
21
-127.9514299999999878
0
LINE
8
BLACK
6
CONTINUOUS
10
132.6234539999999811
20
-127.9514299999999878
11
132.6911920000000009
21
-128.3573509999999942
0
LINE
8
BLACK
6
CONTINUOUS
10
132.6911920000000009
20
-128.3573509999999942
11
132.7922199999999862
21
-128.756292000000002
0
LINE
8
BLACK
6
CONTINUOUS
10
132.7922199999999862
20
-128.756292000000002
11
132.9258460000000071
21
-129.1455269999999871
0
LINE
8
BLACK
6
CONTINUOUS
10
132.9258460000000071
20
-129.1455269999999871
11
133.0911590000000047
21
-129.5223990000000072
0
LINE
8
BLACK
6
CONTINUOUS
10
133.0911590000000047
20
-129.5223990000000072
11
133.2870279999999923
21
-129.8843320000000006
0
LINE
8
BLACK
6
CONTINUOUS
10
133.2870279999999923
20
-129.8843320000000006
11
133.5121169999999893
21
-130.2288549999999816
0
LINE
8
BLACK
6
CONTINUOUS
10
133.5121169999999893
20
-130.2288549999999816
11
133.7648869999999874
21
-130.5536129999999844
0
LINE
8
BLACK
6
CONTINUOUS
10
133.7648869999999874
20
-130.5536129999999844
11
134.043611999999996
21
-130.8563879999999813
0
LINE
8
BLACK
6
CONTINUOUS
10
134.043611999999996
20
-130.8563879999999813
11
134.3463869999999929
21
-131.1351129999999898
0
LINE
8
BLACK
6
CONTINUOUS
10
134.3463869999999929
20
-131.1351129999999898
11
134.6711449999999957
21
-131.387882999999988
0
LINE
8
BLACK
6
CONTINUOUS
10
134.6711449999999957
20
-131.387882999999988
11
135.0156680000000051
21
-131.612971999999985
0
LINE
8
BLACK
6
CONTINUOUS
10
135.0156680000000051
20
-131.612971999999985
11
135.3776009999999985
21
-131.808841000000001
0
LINE
8
BLACK
6
CONTINUOUS
10
135.3776009999999985
20
-131.808841000000001
11
135.7544729999999902
21
-131.9741539999999986
0
LINE
8
BLACK
6
CONTINUOUS
10
135.7544729999999902
20
-131.9741539999999986
11
136.1437080000000037
21
-132.1077799999999911
0
LINE
8
BLACK
6
CONTINUOUS
10
136.1437080000000037
20
-132.1077799999999911
11
136.5426489999999831
21
-132.2088080000000048
0
LINE
8
BLACK
6
CONTINUOUS
10
136.5426489999999831
20
-132.2088080000000048
11
136.9485699999999895
21
-132.2765459999999962
0
LINE
8
BLACK
6
CONTINUOUS
10
136.9485699999999895
20
-132.2765459999999962
11
137.3586990000000014
21
-132.3105329999999924
0
LINE
8
BLACK
6
CONTINUOUS
10
137.3586990000000014
20
-132.3105329999999924
11
137.5644659999999817
21
-132.3105339999999899
0
LINE
8
BLACK
6
CONTINUOUS
10
137.5644659999999817
20
-132.3105339999999899
11
216.4644659999999874
21
-132.3105339999999899
0
LINE
8
BLACK
6
CONTINUOUS
10
216.4644659999999874
20
-132.3105339999999899
11
216.4646259999999813
21
-132.3105649999999969
0
LINE
8
BLACK
6
CONTINUOUS
10
216.4646259999999813
20
-132.3105649999999969
11
216.6702329999999961
21
-132.3105639999999994
0
LINE
8
BLACK
6
CONTINUOUS
10
216.6702329999999961
20
-132.3105639999999994
11
217.0803629999999771
21
-132.2765749999999798
0
LINE
8
BLACK
6
CONTINUOUS
10
217.0803629999999771
20
-132.2765749999999798
11
217.4862839999999835
21
-132.208833999999996
0
LINE
8
BLACK
6
CONTINUOUS
10
217.4862839999999835
20
-132.208833999999996
11
217.8852259999999887
21
-132.1078039999999874
0
LINE
8
BLACK
6
CONTINUOUS
10
217.8852259999999887
20
-132.1078039999999874
11
218.2744619999999998
21
-131.9741750000000025
0
LINE
8
BLACK
6
CONTINUOUS
10
218.2744619999999998
20
-131.9741750000000025
11
218.6513339999999914
21
-131.8088599999999815
0
LINE
8
BLACK
6
CONTINUOUS
10
218.6513339999999914
20
-131.8088599999999815
11
219.0132669999999848
21
-131.6129880000000014
0
LINE
8
BLACK
6
CONTINUOUS
10
219.0132669999999848
20
-131.6129880000000014
11
219.3577889999999968
21
-131.387898000000007
0
LINE
8
BLACK
6
CONTINUOUS
10
219.3577889999999968
20
-131.387898000000007
11
219.6825469999999996
21
-131.1351259999999854
0
LINE
8
BLACK
6
CONTINUOUS
10
219.6825469999999996
20
-131.1351259999999854
11
219.9853219999999965
21
-130.8564000000000078
0
LINE
8
BLACK
6
CONTINUOUS
10
219.9853219999999965
20
-130.8564000000000078
11
220.2640469999999766
21
-130.5536229999999875
0
LINE
8
BLACK
6
CONTINUOUS
10
220.2640469999999766
20
-130.5536229999999875
11
220.5168159999999773
21
-130.2288629999999898
0
LINE
8
BLACK
6
CONTINUOUS
10
220.5168159999999773
20
-130.2288629999999898
11
220.7419050000000027
21
-129.8843389999999829
0
LINE
8
BLACK
6
CONTINUOUS
10
220.7419050000000027
20
-129.8843389999999829
11
220.9377739999999903
21
-129.522404999999992
0
LINE
8
BLACK
6
CONTINUOUS
10
220.9377739999999903
20
-129.522404999999992
11
221.1030859999999905
21
-129.1455320000000029
0
LINE
8
BLACK
6
CONTINUOUS
10
221.1030859999999905
20
-129.1455320000000029
11
221.2367129999999804
21
-128.7562949999999944
0
LINE
8
BLACK
6
CONTINUOUS
10
221.2367129999999804
20
-128.7562949999999944
11
221.3377399999999966
21
-128.3573529999999892
0
LINE
8
BLACK
6
CONTINUOUS
10
221.3377399999999966
20
-128.3573529999999892
11
221.405477999999988
21
-127.9514309999999995
0
LINE
8
BLACK
6
CONTINUOUS
10
221.405477999999988
20
-127.9514309999999995
11
221.4394649999999842
21
-127.54130099999999
0
LINE
8
BLACK
6
CONTINUOUS
10
221.4394649999999842
20
-127.54130099999999
11
221.4394659999999817
21
-127.3355339999999956
0
LINE
8
BLACK
6
CONTINUOUS
10
221.4394659999999817
20
-127.3355339999999956
11
221.4394659999999817
21
-86.5355339999999984
0
LINE
8
BLACK
6
CONTINUOUS
10
221.4394659999999817
20
-86.5355339999999984
11
221.4394669999999792
21
-86.3297659999999922
0
LINE
8
BLACK
6
CONTINUOUS
10
221.4394669999999792
20
-86.3297659999999922
11
221.4054849999999988
21
-85.919635999999997
0
LINE
8
BLACK
6
CONTINUOUS
10
221.4054849999999988
20
-85.919635999999997
11
221.3377509999999972
21
-85.5137119999999982
0
LINE
8
BLACK
6
CONTINUOUS
10
221.3377509999999972
20
-85.5137119999999982
11
221.236725999999976
21
-85.1147689999999955
0
LINE
8
BLACK
6
CONTINUOUS
10
221.236725999999976
20
-85.1147689999999955
11
221.103102999999976
21
-84.7255309999999895
0
LINE
8
BLACK
6
CONTINUOUS
10
221.103102999999976
20
-84.7255309999999895
11
220.9377920000000017
21
-84.3486570000000029
0
LINE
8
BLACK
6
CONTINUOUS
10
220.9377920000000017
20
-84.3486570000000029
11
220.7419229999999857
21
-83.9867210000000028
0
LINE
8
BLACK
6
CONTINUOUS
10
220.7419229999999857
20
-83.9867210000000028
11
220.5168349999999862
21
-83.6421969999999959
0
LINE
8
BLACK
6
CONTINUOUS
10
220.5168349999999862
20
-83.6421969999999959
11
220.264064999999988
21
-83.3174369999999982
0
LINE
8
BLACK
6
CONTINUOUS
10
220.264064999999988
20
-83.3174369999999982
11
219.9853399999999795
21
-83.0146599999999921
0
LINE
8
BLACK
6
CONTINUOUS
10
219.9853399999999795
20
-83.0146599999999921
11
219.6825629999999876
21
-82.7359349999999978
0
LINE
8
BLACK
6
CONTINUOUS
10
219.6825629999999876
20
-82.7359349999999978
11
219.3578029999999899
21
-82.4831649999999996
0
LINE
8
BLACK
6
CONTINUOUS
10
219.3578029999999899
20
-82.4831649999999996
11
219.0132789999999829
21
-82.2580770000000001
0
LINE
8
BLACK
6
CONTINUOUS
10
219.0132789999999829
20
-82.2580770000000001
11
218.6513429999999971
21
-82.0622079999999983
0
LINE
8
BLACK
6
CONTINUOUS
10
218.6513429999999971
20
-82.0622079999999983
11
218.2744689999999821
21
-81.8968969999999956
0
LINE
8
BLACK
6
CONTINUOUS
10
218.2744689999999821
20
-81.8968969999999956
11
217.8852309999999761
21
-81.7632739999999956
0
LINE
8
BLACK
6
CONTINUOUS
10
217.8852309999999761
20
-81.7632739999999956
11
217.4862880000000018
21
-81.6622490000000028
0
LINE
8
BLACK
6
CONTINUOUS
10
217.4862880000000018
20
-81.6622490000000028
11
217.080364000000003
21
-81.5945150000000012
0
LINE
8
BLACK
6
CONTINUOUS
10
217.080364000000003
20
-81.5945150000000012
11
216.6702339999999936
21
-81.5605329999999924
0
LINE
8
BLACK
6
CONTINUOUS
10
216.6702339999999936
20
-81.5605329999999924
11
216.4644659999999874
21
-81.5605339999999899
  0
ENDSEC
  0
EOF
