  0
SECTION
  2
HEADER
  9
$ANGBASE
  50
0.0
  9
$ANGDIR
  70
1
  9
$MEASUREMENT
  70
1
  0
ENDSEC
  0
SECTION
  2
TABLES
  0
TABLE
  2
LTYPE
  70
4
  0
LTYPE
  5
40F
  2
CONTINUOUS
  70
0
  3
Solid line
  72
65
  73
0
  40
0.0
  0
LTYPE
  5
410
  2
DASHDOT
 70
0
  3
Dash Dot ____ _ ____ _
 72
65
 73
4
 40
2.0
 49
1.25
 49
-0.25
 49
0.25
 49
-0.25
  0
LTYPE
  5
411
  2
DASHED
 70
0
  3
Dashed __ __ __ __ __
 72
65
 73
2
 40
0.75
 49
0.5
 49
-0.25
  0
LTYPE
  5
43B
  2
DOTTED
 70
0
  3
Dotted .  .  .  .
 72
65
 73
2
 40
0.2
 49
0.0
 49
-0.2
  0
ENDTAB
  0
TABLE
  2
STYLE
  70
4
  0
STYLE
  2
KICAD
  70
0
  40
0
  41
1
  42
1
  50
0
  71
0
  3
isocp.shx
  0
STYLE
  2
KICADB
  70
0
  40
0
  41
1
  42
1
  50
0
  71
0
  3
isocp.shx
  0
STYLE
  2
KICADI
  70
0
  40
0
  41
1
  42
1
  50
15
  71
0
  3
isocp.shx
  0
STYLE
  2
KICADBI
  70
0
  40
0
  41
1
  42
1
  50
15
  71
0
  3
isocp.shx
  0
ENDTAB
  0
TABLE
  2
LAYER
  70
1
  0
LAYER
  2
BLACK
  70
0
  62
7
  6
CONTINUOUS
  0
ENDTAB
  0
ENDSEC
  0
SECTION
  2
ENTITIES
0
LINE
8
BLACK
6
CONTINUOUS
10
170.2331489999999974
20
-129.4826060000000041
11
170.2980330000000038
21
-129.5259609999999952
0
LINE
8
BLACK
6
CONTINUOUS
10
170.2980330000000038
20
-129.5259609999999952
11
170.3413879999999949
21
-129.5908450000000016
0
LINE
8
BLACK
6
CONTINUOUS
10
170.3413879999999949
20
-129.5908450000000016
11
170.3566119999999842
21
-129.6673820000000035
0
LINE
8
BLACK
6
CONTINUOUS
10
170.3566119999999842
20
-129.6673820000000035
11
170.3566119999999842
21
-130.2173819999999864
0
LINE
8
BLACK
6
CONTINUOUS
10
170.3566119999999842
20
-130.2173819999999864
11
170.3413879999999949
21
-130.2939189999999883
0
LINE
8
BLACK
6
CONTINUOUS
10
170.3413879999999949
20
-130.2939189999999883
11
170.2980330000000038
21
-130.3588029999999947
0
LINE
8
BLACK
6
CONTINUOUS
10
170.2980330000000038
20
-130.3588029999999947
11
170.2331489999999974
21
-130.4021579999999858
0
LINE
8
BLACK
6
CONTINUOUS
10
170.2331489999999974
20
-130.4021579999999858
11
170.1566119999999955
21
-130.4173820000000035
0
LINE
8
BLACK
6
CONTINUOUS
10
170.1566119999999955
20
-130.4173820000000035
11
169.7566119999999898
21
-130.4173820000000035
0
LINE
8
BLACK
6
CONTINUOUS
10
169.7566119999999898
20
-130.4173820000000035
11
169.680074999999988
21
-130.4021579999999858
0
LINE
8
BLACK
6
CONTINUOUS
10
169.680074999999988
20
-130.4021579999999858
11
169.6151909999999816
21
-130.3588029999999947
0
LINE
8
BLACK
6
CONTINUOUS
10
169.6151909999999816
20
-130.3588029999999947
11
169.5718359999999905
21
-130.2939189999999883
0
LINE
8
BLACK
6
CONTINUOUS
10
169.5718359999999905
20
-130.2939189999999883
11
169.5566120000000012
21
-130.2173819999999864
0
LINE
8
BLACK
6
CONTINUOUS
10
169.5566120000000012
20
-130.2173819999999864
11
169.5566120000000012
21
-129.6673820000000035
0
LINE
8
BLACK
6
CONTINUOUS
10
169.5566120000000012
20
-129.6673820000000035
11
169.5718359999999905
21
-129.5908450000000016
0
LINE
8
BLACK
6
CONTINUOUS
10
169.5718359999999905
20
-129.5908450000000016
11
169.6151909999999816
21
-129.5259609999999952
0
LINE
8
BLACK
6
CONTINUOUS
10
169.6151909999999816
20
-129.5259609999999952
11
169.680074999999988
21
-129.4826060000000041
0
LINE
8
BLACK
6
CONTINUOUS
10
169.680074999999988
20
-129.4826060000000041
11
169.7566119999999898
21
-129.4673819999999864
0
LINE
8
BLACK
6
CONTINUOUS
10
169.7566119999999898
20
-129.4673819999999864
11
170.1566119999999955
21
-129.4673819999999864
0
LINE
8
BLACK
6
CONTINUOUS
10
170.1566119999999955
20
-129.4673819999999864
11
170.2331489999999974
21
-129.4826060000000041
0
LINE
8
BLACK
6
CONTINUOUS
10
171.8831490000000031
20
-129.4826060000000041
11
171.948032999999981
21
-129.5259609999999952
0
LINE
8
BLACK
6
CONTINUOUS
10
171.948032999999981
20
-129.5259609999999952
11
171.9913880000000006
21
-129.5908450000000016
0
LINE
8
BLACK
6
CONTINUOUS
10
171.9913880000000006
20
-129.5908450000000016
11
172.0066119999999898
21
-129.6673820000000035
0
LINE
8
BLACK
6
CONTINUOUS
10
172.0066119999999898
20
-129.6673820000000035
11
172.0066119999999898
21
-130.2173819999999864
0
LINE
8
BLACK
6
CONTINUOUS
10
172.0066119999999898
20
-130.2173819999999864
11
171.9913880000000006
21
-130.2939189999999883
0
LINE
8
BLACK
6
CONTINUOUS
10
171.9913880000000006
20
-130.2939189999999883
11
171.948032999999981
21
-130.3588029999999947
0
LINE
8
BLACK
6
CONTINUOUS
10
171.948032999999981
20
-130.3588029999999947
11
171.8831490000000031
21
-130.4021579999999858
0
LINE
8
BLACK
6
CONTINUOUS
10
171.8831490000000031
20
-130.4021579999999858
11
171.8066120000000012
21
-130.4173820000000035
0
LINE
8
BLACK
6
CONTINUOUS
10
171.8066120000000012
20
-130.4173820000000035
11
171.4066119999999955
21
-130.4173820000000035
0
LINE
8
BLACK
6
CONTINUOUS
10
171.4066119999999955
20
-130.4173820000000035
11
171.3300749999999937
21
-130.4021579999999858
0
LINE
8
BLACK
6
CONTINUOUS
10
171.3300749999999937
20
-130.4021579999999858
11
171.2651909999999873
21
-130.3588029999999947
0
LINE
8
BLACK
6
CONTINUOUS
10
171.2651909999999873
20
-130.3588029999999947
11
171.2218359999999961
21
-130.2939189999999883
0
LINE
8
BLACK
6
CONTINUOUS
10
171.2218359999999961
20
-130.2939189999999883
11
171.2066119999999785
21
-130.2173819999999864
0
LINE
8
BLACK
6
CONTINUOUS
10
171.2066119999999785
20
-130.2173819999999864
11
171.2066119999999785
21
-129.6673820000000035
0
LINE
8
BLACK
6
CONTINUOUS
10
171.2066119999999785
20
-129.6673820000000035
11
171.2218359999999961
21
-129.5908450000000016
0
LINE
8
BLACK
6
CONTINUOUS
10
171.2218359999999961
20
-129.5908450000000016
11
171.2651909999999873
21
-129.5259609999999952
0
LINE
8
BLACK
6
CONTINUOUS
10
171.2651909999999873
20
-129.5259609999999952
11
171.3300749999999937
21
-129.4826060000000041
0
LINE
8
BLACK
6
CONTINUOUS
10
171.3300749999999937
20
-129.4826060000000041
11
171.4066119999999955
21
-129.4673819999999864
0
LINE
8
BLACK
6
CONTINUOUS
10
171.4066119999999955
20
-129.4673819999999864
11
171.8066120000000012
21
-129.4673819999999864
0
LINE
8
BLACK
6
CONTINUOUS
10
171.8066120000000012
20
-129.4673819999999864
11
171.8831490000000031
21
-129.4826060000000041
0
LINE
8
BLACK
6
CONTINUOUS
10
174.6508879999999806
20
-129.4806739999999934
11
174.715771999999987
21
-129.5240289999999845
0
LINE
8
BLACK
6
CONTINUOUS
10
174.715771999999987
20
-129.5240289999999845
11
174.7591269999999781
21
-129.5889129999999909
0
LINE
8
BLACK
6
CONTINUOUS
10
174.7591269999999781
20
-129.5889129999999909
11
174.7743509999999958
21
-129.6654499999999928
0
LINE
8
BLACK
6
CONTINUOUS
10
174.7743509999999958
20
-129.6654499999999928
11
174.7743509999999958
21
-130.2154500000000041
0
LINE
8
BLACK
6
CONTINUOUS
10
174.7743509999999958
20
-130.2154500000000041
11
174.7591269999999781
21
-130.291987000000006
0
LINE
8
BLACK
6
CONTINUOUS
10
174.7591269999999781
20
-130.291987000000006
11
174.715771999999987
21
-130.356870999999984
0
LINE
8
BLACK
6
CONTINUOUS
10
174.715771999999987
20
-130.356870999999984
11
174.6508879999999806
21
-130.4002260000000035
0
LINE
8
BLACK
6
CONTINUOUS
10
174.6508879999999806
20
-130.4002260000000035
11
174.5743509999999787
21
-130.4154499999999928
0
LINE
8
BLACK
6
CONTINUOUS
10
174.5743509999999787
20
-130.4154499999999928
11
174.1743510000000015
21
-130.4154499999999928
0
LINE
8
BLACK
6
CONTINUOUS
10
174.1743510000000015
20
-130.4154499999999928
11
174.0978139999999996
21
-130.4002260000000035
0
LINE
8
BLACK
6
CONTINUOUS
10
174.0978139999999996
20
-130.4002260000000035
11
174.0329299999999932
21
-130.356870999999984
0
LINE
8
BLACK
6
CONTINUOUS
10
174.0329299999999932
20
-130.356870999999984
11
173.9895750000000021
21
-130.291987000000006
0
LINE
8
BLACK
6
CONTINUOUS
10
173.9895750000000021
20
-130.291987000000006
11
173.9743509999999844
21
-130.2154500000000041
0
LINE
8
BLACK
6
CONTINUOUS
10
173.9743509999999844
20
-130.2154500000000041
11
173.9743509999999844
21
-129.6654499999999928
0
LINE
8
BLACK
6
CONTINUOUS
10
173.9743509999999844
20
-129.6654499999999928
11
173.9895750000000021
21
-129.5889129999999909
0
LINE
8
BLACK
6
CONTINUOUS
10
173.9895750000000021
20
-129.5889129999999909
11
174.0329299999999932
21
-129.5240289999999845
0
LINE
8
BLACK
6
CONTINUOUS
10
174.0329299999999932
20
-129.5240289999999845
11
174.0978139999999996
21
-129.4806739999999934
0
LINE
8
BLACK
6
CONTINUOUS
10
174.0978139999999996
20
-129.4806739999999934
11
174.1743510000000015
21
-129.4654500000000041
0
LINE
8
BLACK
6
CONTINUOUS
10
174.1743510000000015
20
-129.4654500000000041
11
174.5743509999999787
21
-129.4654500000000041
0
LINE
8
BLACK
6
CONTINUOUS
10
174.5743509999999787
20
-129.4654500000000041
11
174.6508879999999806
21
-129.4806739999999934
0
LINE
8
BLACK
6
CONTINUOUS
10
176.3008879999999863
20
-129.4806739999999934
11
176.3657719999999927
21
-129.5240289999999845
0
LINE
8
BLACK
6
CONTINUOUS
10
176.3657719999999927
20
-129.5240289999999845
11
176.4091269999999838
21
-129.5889129999999909
0
LINE
8
BLACK
6
CONTINUOUS
10
176.4091269999999838
20
-129.5889129999999909
11
176.4243510000000015
21
-129.6654499999999928
0
LINE
8
BLACK
6
CONTINUOUS
10
176.4243510000000015
20
-129.6654499999999928
11
176.4243510000000015
21
-130.2154500000000041
0
LINE
8
BLACK
6
CONTINUOUS
10
176.4243510000000015
20
-130.2154500000000041
11
176.4091269999999838
21
-130.291987000000006
0
LINE
8
BLACK
6
CONTINUOUS
10
176.4091269999999838
20
-130.291987000000006
11
176.3657719999999927
21
-130.356870999999984
0
LINE
8
BLACK
6
CONTINUOUS
10
176.3657719999999927
20
-130.356870999999984
11
176.3008879999999863
21
-130.4002260000000035
0
LINE
8
BLACK
6
CONTINUOUS
10
176.3008879999999863
20
-130.4002260000000035
11
176.2243509999999844
21
-130.4154499999999928
0
LINE
8
BLACK
6
CONTINUOUS
10
176.2243509999999844
20
-130.4154499999999928
11
175.8243509999999787
21
-130.4154499999999928
0
LINE
8
BLACK
6
CONTINUOUS
10
175.8243509999999787
20
-130.4154499999999928
11
175.7478140000000053
21
-130.4002260000000035
0
LINE
8
BLACK
6
CONTINUOUS
10
175.7478140000000053
20
-130.4002260000000035
11
175.6829299999999989
21
-130.356870999999984
0
LINE
8
BLACK
6
CONTINUOUS
10
175.6829299999999989
20
-130.356870999999984
11
175.6395749999999794
21
-130.291987000000006
0
LINE
8
BLACK
6
CONTINUOUS
10
175.6395749999999794
20
-130.291987000000006
11
175.6243509999999901
21
-130.2154500000000041
0
LINE
8
BLACK
6
CONTINUOUS
10
175.6243509999999901
20
-130.2154500000000041
11
175.6243509999999901
21
-129.6654499999999928
0
LINE
8
BLACK
6
CONTINUOUS
10
175.6243509999999901
20
-129.6654499999999928
11
175.6395749999999794
21
-129.5889129999999909
0
LINE
8
BLACK
6
CONTINUOUS
10
175.6395749999999794
20
-129.5889129999999909
11
175.6829299999999989
21
-129.5240289999999845
0
LINE
8
BLACK
6
CONTINUOUS
10
175.6829299999999989
20
-129.5240289999999845
11
175.7478140000000053
21
-129.4806739999999934
0
LINE
8
BLACK
6
CONTINUOUS
10
175.7478140000000053
20
-129.4806739999999934
11
175.8243509999999787
21
-129.4654500000000041
0
LINE
8
BLACK
6
CONTINUOUS
10
175.8243509999999787
20
-129.4654500000000041
11
176.2243509999999844
21
-129.4654500000000041
0
LINE
8
BLACK
6
CONTINUOUS
10
176.2243509999999844
20
-129.4654500000000041
11
176.3008879999999863
21
-129.4806739999999934
0
LINE
8
BLACK
6
CONTINUOUS
10
173.3430319999999938
20
-129.6297749999999951
11
173.4079160000000002
21
-129.6731299999999862
0
LINE
8
BLACK
6
CONTINUOUS
10
173.4079160000000002
20
-129.6731299999999862
11
173.4512709999999913
21
-129.7380139999999926
0
LINE
8
BLACK
6
CONTINUOUS
10
173.4512709999999913
20
-129.7380139999999926
11
173.4664949999999806
21
-129.8145509999999945
0
LINE
8
BLACK
6
CONTINUOUS
10
173.4664949999999806
20
-129.8145509999999945
11
173.4664949999999806
21
-130.2145510000000002
0
LINE
8
BLACK
6
CONTINUOUS
10
173.4664949999999806
20
-130.2145510000000002
11
173.4512709999999913
21
-130.291088000000002
0
LINE
8
BLACK
6
CONTINUOUS
10
173.4512709999999913
20
-130.291088000000002
11
173.4079160000000002
21
-130.35597199999998
0
LINE
8
BLACK
6
CONTINUOUS
10
173.4079160000000002
20
-130.35597199999998
11
173.3430319999999938
21
-130.3993269999999995
0
LINE
8
BLACK
6
CONTINUOUS
10
173.3430319999999938
20
-130.3993269999999995
11
173.2664949999999919
21
-130.4145509999999888
0
LINE
8
BLACK
6
CONTINUOUS
10
173.2664949999999919
20
-130.4145509999999888
11
172.7164949999999806
21
-130.4145509999999888
0
LINE
8
BLACK
6
CONTINUOUS
10
172.7164949999999806
20
-130.4145509999999888
11
172.6399579999999787
21
-130.3993269999999995
0
LINE
8
BLACK
6
CONTINUOUS
10
172.6399579999999787
20
-130.3993269999999995
11
172.5750740000000008
21
-130.35597199999998
0
LINE
8
BLACK
6
CONTINUOUS
10
172.5750740000000008
20
-130.35597199999998
11
172.5317189999999812
21
-130.291088000000002
0
LINE
8
BLACK
6
CONTINUOUS
10
172.5317189999999812
20
-130.291088000000002
11
172.5164949999999919
21
-130.2145510000000002
0
LINE
8
BLACK
6
CONTINUOUS
10
172.5164949999999919
20
-130.2145510000000002
11
172.5164949999999919
21
-129.8145509999999945
0
LINE
8
BLACK
6
CONTINUOUS
10
172.5164949999999919
20
-129.8145509999999945
11
172.5317189999999812
21
-129.7380139999999926
0
LINE
8
BLACK
6
CONTINUOUS
10
172.5317189999999812
20
-129.7380139999999926
11
172.5750740000000008
21
-129.6731299999999862
0
LINE
8
BLACK
6
CONTINUOUS
10
172.5750740000000008
20
-129.6731299999999862
11
172.6399579999999787
21
-129.6297749999999951
0
LINE
8
BLACK
6
CONTINUOUS
10
172.6399579999999787
20
-129.6297749999999951
11
172.7164949999999806
21
-129.6145510000000058
0
LINE
8
BLACK
6
CONTINUOUS
10
172.7164949999999806
20
-129.6145510000000058
11
173.2664949999999919
21
-129.6145510000000058
0
LINE
8
BLACK
6
CONTINUOUS
10
173.2664949999999919
20
-129.6145510000000058
11
173.3430319999999938
21
-129.6297749999999951
0
LINE
8
BLACK
6
CONTINUOUS
10
174.7354449999999986
20
-128.0278509999999983
11
174.8084399999999903
21
-128.076625000000007
0
LINE
8
BLACK
6
CONTINUOUS
10
174.8084399999999903
20
-128.076625000000007
11
174.857213999999999
21
-128.1496199999999988
0
LINE
8
BLACK
6
CONTINUOUS
10
174.857213999999999
20
-128.1496199999999988
11
174.8743409999999869
21
-128.2357240000000047
0
LINE
8
BLACK
6
CONTINUOUS
10
174.8743409999999869
20
-128.2357240000000047
11
174.8743409999999869
21
-128.7357240000000047
0
LINE
8
BLACK
6
CONTINUOUS
10
174.8743409999999869
20
-128.7357240000000047
11
174.857213999999999
21
-128.8218279999999822
0
LINE
8
BLACK
6
CONTINUOUS
10
174.857213999999999
20
-128.8218279999999822
11
174.8084399999999903
21
-128.8948230000000024
0
LINE
8
BLACK
6
CONTINUOUS
10
174.8084399999999903
20
-128.8948230000000024
11
174.7354449999999986
21
-128.9435969999999827
0
LINE
8
BLACK
6
CONTINUOUS
10
174.7354449999999986
20
-128.9435969999999827
11
174.6493409999999926
21
-128.960723999999999
0
LINE
8
BLACK
6
CONTINUOUS
10
174.6493409999999926
20
-128.960723999999999
11
174.199341000000004
21
-128.960723999999999
0
LINE
8
BLACK
6
CONTINUOUS
10
174.199341000000004
20
-128.960723999999999
11
174.113236999999998
21
-128.9435969999999827
0
LINE
8
BLACK
6
CONTINUOUS
10
174.113236999999998
20
-128.9435969999999827
11
174.0402420000000063
21
-128.8948230000000024
0
LINE
8
BLACK
6
CONTINUOUS
10
174.0402420000000063
20
-128.8948230000000024
11
173.9914679999999976
21
-128.8218279999999822
0
LINE
8
BLACK
6
CONTINUOUS
10
173.9914679999999976
20
-128.8218279999999822
11
173.9743409999999812
21
-128.7357240000000047
0
LINE
8
BLACK
6
CONTINUOUS
10
173.9743409999999812
20
-128.7357240000000047
11
173.9743409999999812
21
-128.2357240000000047
0
LINE
8
BLACK
6
CONTINUOUS
10
173.9743409999999812
20
-128.2357240000000047
11
173.9914679999999976
21
-128.1496199999999988
0
LINE
8
BLACK
6
CONTINUOUS
10
173.9914679999999976
20
-128.1496199999999988
11
174.0402420000000063
21
-128.076625000000007
0
LINE
8
BLACK
6
CONTINUOUS
10
174.0402420000000063
20
-128.076625000000007
11
174.113236999999998
21
-128.0278509999999983
0
LINE
8
BLACK
6
CONTINUOUS
10
174.113236999999998
20
-128.0278509999999983
11
174.199341000000004
21
-128.010723999999982
0
LINE
8
BLACK
6
CONTINUOUS
10
174.199341000000004
20
-128.010723999999982
11
174.6493409999999926
21
-128.010723999999982
0
LINE
8
BLACK
6
CONTINUOUS
10
174.6493409999999926
20
-128.010723999999982
11
174.7354449999999986
21
-128.0278509999999983
0
LINE
8
BLACK
6
CONTINUOUS
10
176.2854449999999815
20
-128.0278509999999983
11
176.3584400000000016
21
-128.076625000000007
0
LINE
8
BLACK
6
CONTINUOUS
10
176.3584400000000016
20
-128.076625000000007
11
176.407213999999982
21
-128.1496199999999988
0
LINE
8
BLACK
6
CONTINUOUS
10
176.407213999999982
20
-128.1496199999999988
11
176.4243409999999983
21
-128.2357240000000047
0
LINE
8
BLACK
6
CONTINUOUS
10
176.4243409999999983
20
-128.2357240000000047
11
176.4243409999999983
21
-128.7357240000000047
0
LINE
8
BLACK
6
CONTINUOUS
10
176.4243409999999983
20
-128.7357240000000047
11
176.407213999999982
21
-128.8218279999999822
0
LINE
8
BLACK
6
CONTINUOUS
10
176.407213999999982
20
-128.8218279999999822
11
176.3584400000000016
21
-128.8948230000000024
0
LINE
8
BLACK
6
CONTINUOUS
10
176.3584400000000016
20
-128.8948230000000024
11
176.2854449999999815
21
-128.9435969999999827
0
LINE
8
BLACK
6
CONTINUOUS
10
176.2854449999999815
20
-128.9435969999999827
11
176.199341000000004
21
-128.960723999999999
0
LINE
8
BLACK
6
CONTINUOUS
10
176.199341000000004
20
-128.960723999999999
11
175.7493409999999869
21
-128.960723999999999
0
LINE
8
BLACK
6
CONTINUOUS
10
175.7493409999999869
20
-128.960723999999999
11
175.663236999999981
21
-128.9435969999999827
0
LINE
8
BLACK
6
CONTINUOUS
10
175.663236999999981
20
-128.9435969999999827
11
175.5902419999999893
21
-128.8948230000000024
0
LINE
8
BLACK
6
CONTINUOUS
10
175.5902419999999893
20
-128.8948230000000024
11
175.5414679999999805
21
-128.8218279999999822
0
LINE
8
BLACK
6
CONTINUOUS
10
175.5414679999999805
20
-128.8218279999999822
11
175.5243409999999926
21
-128.7357240000000047
0
LINE
8
BLACK
6
CONTINUOUS
10
175.5243409999999926
20
-128.7357240000000047
11
175.5243409999999926
21
-128.2357240000000047
0
LINE
8
BLACK
6
CONTINUOUS
10
175.5243409999999926
20
-128.2357240000000047
11
175.5414679999999805
21
-128.1496199999999988
0
LINE
8
BLACK
6
CONTINUOUS
10
175.5414679999999805
20
-128.1496199999999988
11
175.5902419999999893
21
-128.076625000000007
0
LINE
8
BLACK
6
CONTINUOUS
10
175.5902419999999893
20
-128.076625000000007
11
175.663236999999981
21
-128.0278509999999983
0
LINE
8
BLACK
6
CONTINUOUS
10
175.663236999999981
20
-128.0278509999999983
11
175.7493409999999869
21
-128.010723999999982
0
LINE
8
BLACK
6
CONTINUOUS
10
175.7493409999999869
20
-128.010723999999982
11
176.199341000000004
21
-128.010723999999982
0
LINE
8
BLACK
6
CONTINUOUS
10
176.199341000000004
20
-128.010723999999982
11
176.2854449999999815
21
-128.0278509999999983
0
LINE
8
BLACK
6
CONTINUOUS
10
173.3430319999999938
20
-127.9797749999999894
11
173.4079160000000002
21
-128.0231299999999806
0
LINE
8
BLACK
6
CONTINUOUS
10
173.4079160000000002
20
-128.0231299999999806
11
173.4512709999999913
21
-128.0880139999999869
0
LINE
8
BLACK
6
CONTINUOUS
10
173.4512709999999913
20
-128.0880139999999869
11
173.4664949999999806
21
-128.1645509999999888
0
LINE
8
BLACK
6
CONTINUOUS
10
173.4664949999999806
20
-128.1645509999999888
11
173.4664949999999806
21
-128.5645509999999945
0
LINE
8
BLACK
6
CONTINUOUS
10
173.4664949999999806
20
-128.5645509999999945
11
173.4512709999999913
21
-128.6410879999999963
0
LINE
8
BLACK
6
CONTINUOUS
10
173.4512709999999913
20
-128.6410879999999963
11
173.4079160000000002
21
-128.7059720000000027
0
LINE
8
BLACK
6
CONTINUOUS
10
173.4079160000000002
20
-128.7059720000000027
11
173.3430319999999938
21
-128.7493269999999939
0
LINE
8
BLACK
6
CONTINUOUS
10
173.3430319999999938
20
-128.7493269999999939
11
173.2664949999999919
21
-128.7645509999999831
0
LINE
8
BLACK
6
CONTINUOUS
10
173.2664949999999919
20
-128.7645509999999831
11
172.7164949999999806
21
-128.7645509999999831
0
LINE
8
BLACK
6
CONTINUOUS
10
172.7164949999999806
20
-128.7645509999999831
11
172.6399579999999787
21
-128.7493269999999939
0
LINE
8
BLACK
6
CONTINUOUS
10
172.6399579999999787
20
-128.7493269999999939
11
172.5750740000000008
21
-128.7059720000000027
0
LINE
8
BLACK
6
CONTINUOUS
10
172.5750740000000008
20
-128.7059720000000027
11
172.5317189999999812
21
-128.6410879999999963
0
LINE
8
BLACK
6
CONTINUOUS
10
172.5317189999999812
20
-128.6410879999999963
11
172.5164949999999919
21
-128.5645509999999945
0
LINE
8
BLACK
6
CONTINUOUS
10
172.5164949999999919
20
-128.5645509999999945
11
172.5164949999999919
21
-128.1645509999999888
0
LINE
8
BLACK
6
CONTINUOUS
10
172.5164949999999919
20
-128.1645509999999888
11
172.5317189999999812
21
-128.0880139999999869
0
LINE
8
BLACK
6
CONTINUOUS
10
172.5317189999999812
20
-128.0880139999999869
11
172.5750740000000008
21
-128.0231299999999806
0
LINE
8
BLACK
6
CONTINUOUS
10
172.5750740000000008
20
-128.0231299999999806
11
172.6399579999999787
21
-127.9797749999999894
0
LINE
8
BLACK
6
CONTINUOUS
10
172.6399579999999787
20
-127.9797749999999894
11
172.7164949999999806
21
-127.9645510000000002
0
LINE
8
BLACK
6
CONTINUOUS
10
172.7164949999999806
20
-127.9645510000000002
11
173.2664949999999919
21
-127.9645510000000002
0
LINE
8
BLACK
6
CONTINUOUS
10
173.2664949999999919
20
-127.9645510000000002
11
173.3430319999999938
21
-127.9797749999999894
0
LINE
8
BLACK
6
CONTINUOUS
10
146.9577989999999943
20
-128.7488679999999874
11
145.7577990000000057
21
-128.7488679999999874
0
LINE
8
BLACK
6
CONTINUOUS
10
145.7577990000000057
20
-128.7488679999999874
11
145.7577990000000057
21
-126.9488679999999903
0
LINE
8
BLACK
6
CONTINUOUS
10
145.7577990000000057
20
-126.9488679999999903
11
146.9577989999999943
21
-126.9488679999999903
0
LINE
8
BLACK
6
CONTINUOUS
10
146.9577989999999943
20
-126.9488679999999903
11
146.9577989999999943
21
-128.7488679999999874
0
LINE
8
BLACK
6
CONTINUOUS
10
151.4577989999999943
20
-128.7488679999999874
11
150.2577990000000057
21
-128.7488679999999874
0
LINE
8
BLACK
6
CONTINUOUS
10
150.2577990000000057
20
-128.7488679999999874
11
150.2577990000000057
21
-126.9488679999999903
0
LINE
8
BLACK
6
CONTINUOUS
10
150.2577990000000057
20
-126.9488679999999903
11
151.4577989999999943
21
-126.9488679999999903
0
LINE
8
BLACK
6
CONTINUOUS
10
151.4577989999999943
20
-126.9488679999999903
11
151.4577989999999943
21
-128.7488679999999874
0
LINE
8
BLACK
6
CONTINUOUS
10
159.6680749999999875
20
-126.6370139999999935
11
159.7329589999999939
21
-126.6803689999999989
0
LINE
8
BLACK
6
CONTINUOUS
10
159.7329589999999939
20
-126.6803689999999989
11
159.7763139999999851
21
-126.7452529999999911
0
LINE
8
BLACK
6
CONTINUOUS
10
159.7763139999999851
20
-126.7452529999999911
11
159.7915380000000027
21
-126.8217899999999929
0
LINE
8
BLACK
6
CONTINUOUS
10
159.7915380000000027
20
-126.8217899999999929
11
159.7915380000000027
21
-127.3717899999999901
0
LINE
8
BLACK
6
CONTINUOUS
10
159.7915380000000027
20
-127.3717899999999901
11
159.7763139999999851
21
-127.4483269999999919
0
LINE
8
BLACK
6
CONTINUOUS
10
159.7763139999999851
20
-127.4483269999999919
11
159.7329589999999939
21
-127.5132109999999983
0
LINE
8
BLACK
6
CONTINUOUS
10
159.7329589999999939
20
-127.5132109999999983
11
159.6680749999999875
21
-127.5565659999999895
0
LINE
8
BLACK
6
CONTINUOUS
10
159.6680749999999875
20
-127.5565659999999895
11
159.5915379999999857
21
-127.5717899999999929
0
LINE
8
BLACK
6
CONTINUOUS
10
159.5915379999999857
20
-127.5717899999999929
11
159.19153799999998
21
-127.5717899999999929
0
LINE
8
BLACK
6
CONTINUOUS
10
159.19153799999998
20
-127.5717899999999929
11
159.1150010000000066
21
-127.5565659999999895
0
LINE
8
BLACK
6
CONTINUOUS
10
159.1150010000000066
20
-127.5565659999999895
11
159.0501170000000002
21
-127.5132109999999983
0
LINE
8
BLACK
6
CONTINUOUS
10
159.0501170000000002
20
-127.5132109999999983
11
159.0067619999999806
21
-127.4483269999999919
0
LINE
8
BLACK
6
CONTINUOUS
10
159.0067619999999806
20
-127.4483269999999919
11
158.9915379999999914
21
-127.3717899999999901
0
LINE
8
BLACK
6
CONTINUOUS
10
158.9915379999999914
20
-127.3717899999999901
11
158.9915379999999914
21
-126.8217899999999929
0
LINE
8
BLACK
6
CONTINUOUS
10
158.9915379999999914
20
-126.8217899999999929
11
159.0067619999999806
21
-126.7452529999999911
0
LINE
8
BLACK
6
CONTINUOUS
10
159.0067619999999806
20
-126.7452529999999911
11
159.0501170000000002
21
-126.6803689999999989
0
LINE
8
BLACK
6
CONTINUOUS
10
159.0501170000000002
20
-126.6803689999999989
11
159.1150010000000066
21
-126.6370139999999935
0
LINE
8
BLACK
6
CONTINUOUS
10
159.1150010000000066
20
-126.6370139999999935
11
159.19153799999998
21
-126.6217899999999901
0
LINE
8
BLACK
6
CONTINUOUS
10
159.19153799999998
20
-126.6217899999999901
11
159.5915379999999857
21
-126.6217899999999901
0
LINE
8
BLACK
6
CONTINUOUS
10
159.5915379999999857
20
-126.6217899999999901
11
159.6680749999999875
21
-126.6370139999999935
0
LINE
8
BLACK
6
CONTINUOUS
10
161.3180749999999932
20
-126.6370139999999935
11
161.3829589999999996
21
-126.6803689999999989
0
LINE
8
BLACK
6
CONTINUOUS
10
161.3829589999999996
20
-126.6803689999999989
11
161.4263139999999908
21
-126.7452529999999911
0
LINE
8
BLACK
6
CONTINUOUS
10
161.4263139999999908
20
-126.7452529999999911
11
161.44153799999998
21
-126.8217899999999929
0
LINE
8
BLACK
6
CONTINUOUS
10
161.44153799999998
20
-126.8217899999999929
11
161.44153799999998
21
-127.3717899999999901
0
LINE
8
BLACK
6
CONTINUOUS
10
161.44153799999998
20
-127.3717899999999901
11
161.4263139999999908
21
-127.4483269999999919
0
LINE
8
BLACK
6
CONTINUOUS
10
161.4263139999999908
20
-127.4483269999999919
11
161.3829589999999996
21
-127.5132109999999983
0
LINE
8
BLACK
6
CONTINUOUS
10
161.3829589999999996
20
-127.5132109999999983
11
161.3180749999999932
21
-127.5565659999999895
0
LINE
8
BLACK
6
CONTINUOUS
10
161.3180749999999932
20
-127.5565659999999895
11
161.2415379999999914
21
-127.5717899999999929
0
LINE
8
BLACK
6
CONTINUOUS
10
161.2415379999999914
20
-127.5717899999999929
11
160.8415379999999857
21
-127.5717899999999929
0
LINE
8
BLACK
6
CONTINUOUS
10
160.8415379999999857
20
-127.5717899999999929
11
160.7650009999999838
21
-127.5565659999999895
0
LINE
8
BLACK
6
CONTINUOUS
10
160.7650009999999838
20
-127.5565659999999895
11
160.7001170000000059
21
-127.5132109999999983
0
LINE
8
BLACK
6
CONTINUOUS
10
160.7001170000000059
20
-127.5132109999999983
11
160.6567619999999863
21
-127.4483269999999919
0
LINE
8
BLACK
6
CONTINUOUS
10
160.6567619999999863
20
-127.4483269999999919
11
160.6415379999999971
21
-127.3717899999999901
0
LINE
8
BLACK
6
CONTINUOUS
10
160.6415379999999971
20
-127.3717899999999901
11
160.6415379999999971
21
-126.8217899999999929
0
LINE
8
BLACK
6
CONTINUOUS
10
160.6415379999999971
20
-126.8217899999999929
11
160.6567619999999863
21
-126.7452529999999911
0
LINE
8
BLACK
6
CONTINUOUS
10
160.6567619999999863
20
-126.7452529999999911
11
160.7001170000000059
21
-126.6803689999999989
0
LINE
8
BLACK
6
CONTINUOUS
10
160.7001170000000059
20
-126.6803689999999989
11
160.7650009999999838
21
-126.6370139999999935
0
LINE
8
BLACK
6
CONTINUOUS
10
160.7650009999999838
20
-126.6370139999999935
11
160.8415379999999857
21
-126.6217899999999901
0
LINE
8
BLACK
6
CONTINUOUS
10
160.8415379999999857
20
-126.6217899999999901
11
161.2415379999999914
21
-126.6217899999999901
0
LINE
8
BLACK
6
CONTINUOUS
10
161.2415379999999914
20
-126.6217899999999901
11
161.3180749999999932
21
-126.6370139999999935
0
LINE
8
BLACK
6
CONTINUOUS
10
176.47357599999998
20
-126.3290109999999942
11
176.5465710000000001
21
-126.3777849999999887
0
LINE
8
BLACK
6
CONTINUOUS
10
176.5465710000000001
20
-126.3777849999999887
11
176.5953449999999805
21
-126.4507799999999946
0
LINE
8
BLACK
6
CONTINUOUS
10
176.5953449999999805
20
-126.4507799999999946
11
176.6124719999999968
21
-126.5368840000000006
0
LINE
8
BLACK
6
CONTINUOUS
10
176.6124719999999968
20
-126.5368840000000006
11
176.6124719999999968
21
-127.0368840000000006
0
LINE
8
BLACK
6
CONTINUOUS
10
176.6124719999999968
20
-127.0368840000000006
11
176.5953449999999805
21
-127.1229879999999923
0
LINE
8
BLACK
6
CONTINUOUS
10
176.5953449999999805
20
-127.1229879999999923
11
176.5465710000000001
21
-127.1959829999999982
0
LINE
8
BLACK
6
CONTINUOUS
10
176.5465710000000001
20
-127.1959829999999982
11
176.47357599999998
21
-127.2447569999999928
0
LINE
8
BLACK
6
CONTINUOUS
10
176.47357599999998
20
-127.2447569999999928
11
176.3874720000000025
21
-127.2618839999999949
0
LINE
8
BLACK
6
CONTINUOUS
10
176.3874720000000025
20
-127.2618839999999949
11
175.9374719999999854
21
-127.2618839999999949
0
LINE
8
BLACK
6
CONTINUOUS
10
175.9374719999999854
20
-127.2618839999999949
11
175.8513679999999795
21
-127.2447569999999928
0
LINE
8
BLACK
6
CONTINUOUS
10
175.8513679999999795
20
-127.2447569999999928
11
175.7783729999999878
21
-127.1959829999999982
0
LINE
8
BLACK
6
CONTINUOUS
10
175.7783729999999878
20
-127.1959829999999982
11
175.729598999999979
21
-127.1229879999999923
0
LINE
8
BLACK
6
CONTINUOUS
10
175.729598999999979
20
-127.1229879999999923
11
175.7124719999999911
21
-127.0368840000000006
0
LINE
8
BLACK
6
CONTINUOUS
10
175.7124719999999911
20
-127.0368840000000006
11
175.7124719999999911
21
-126.5368840000000006
0
LINE
8
BLACK
6
CONTINUOUS
10
175.7124719999999911
20
-126.5368840000000006
11
175.729598999999979
21
-126.4507799999999946
0
LINE
8
BLACK
6
CONTINUOUS
10
175.729598999999979
20
-126.4507799999999946
11
175.7783729999999878
21
-126.3777849999999887
0
LINE
8
BLACK
6
CONTINUOUS
10
175.7783729999999878
20
-126.3777849999999887
11
175.8513679999999795
21
-126.3290109999999942
0
LINE
8
BLACK
6
CONTINUOUS
10
175.8513679999999795
20
-126.3290109999999942
11
175.9374719999999854
21
-126.3118839999999921
0
LINE
8
BLACK
6
CONTINUOUS
10
175.9374719999999854
20
-126.3118839999999921
11
176.3874720000000025
21
-126.3118839999999921
0
LINE
8
BLACK
6
CONTINUOUS
10
176.3874720000000025
20
-126.3118839999999921
11
176.47357599999998
21
-126.3290109999999942
0
LINE
8
BLACK
6
CONTINUOUS
10
178.0235759999999914
20
-126.3290109999999942
11
178.0965709999999831
21
-126.3777849999999887
0
LINE
8
BLACK
6
CONTINUOUS
10
178.0965709999999831
20
-126.3777849999999887
11
178.1453449999999918
21
-126.4507799999999946
0
LINE
8
BLACK
6
CONTINUOUS
10
178.1453449999999918
20
-126.4507799999999946
11
178.1624719999999797
21
-126.5368840000000006
0
LINE
8
BLACK
6
CONTINUOUS
10
178.1624719999999797
20
-126.5368840000000006
11
178.1624719999999797
21
-127.0368840000000006
0
LINE
8
BLACK
6
CONTINUOUS
10
178.1624719999999797
20
-127.0368840000000006
11
178.1453449999999918
21
-127.1229879999999923
0
LINE
8
BLACK
6
CONTINUOUS
10
178.1453449999999918
20
-127.1229879999999923
11
178.0965709999999831
21
-127.1959829999999982
0
LINE
8
BLACK
6
CONTINUOUS
10
178.0965709999999831
20
-127.1959829999999982
11
178.0235759999999914
21
-127.2447569999999928
0
LINE
8
BLACK
6
CONTINUOUS
10
178.0235759999999914
20
-127.2447569999999928
11
177.9374719999999854
21
-127.2618839999999949
0
LINE
8
BLACK
6
CONTINUOUS
10
177.9374719999999854
20
-127.2618839999999949
11
177.4874719999999968
21
-127.2618839999999949
0
LINE
8
BLACK
6
CONTINUOUS
10
177.4874719999999968
20
-127.2618839999999949
11
177.4013679999999908
21
-127.2447569999999928
0
LINE
8
BLACK
6
CONTINUOUS
10
177.4013679999999908
20
-127.2447569999999928
11
177.3283729999999991
21
-127.1959829999999982
0
LINE
8
BLACK
6
CONTINUOUS
10
177.3283729999999991
20
-127.1959829999999982
11
177.2795989999999904
21
-127.1229879999999923
0
LINE
8
BLACK
6
CONTINUOUS
10
177.2795989999999904
20
-127.1229879999999923
11
177.2624720000000025
21
-127.0368840000000006
0
LINE
8
BLACK
6
CONTINUOUS
10
177.2624720000000025
20
-127.0368840000000006
11
177.2624720000000025
21
-126.5368840000000006
0
LINE
8
BLACK
6
CONTINUOUS
10
177.2624720000000025
20
-126.5368840000000006
11
177.2795989999999904
21
-126.4507799999999946
0
LINE
8
BLACK
6
CONTINUOUS
10
177.2795989999999904
20
-126.4507799999999946
11
177.3283729999999991
21
-126.3777849999999887
0
LINE
8
BLACK
6
CONTINUOUS
10
177.3283729999999991
20
-126.3777849999999887
11
177.4013679999999908
21
-126.3290109999999942
0
LINE
8
BLACK
6
CONTINUOUS
10
177.4013679999999908
20
-126.3290109999999942
11
177.4874719999999968
21
-126.3118839999999921
0
LINE
8
BLACK
6
CONTINUOUS
10
177.4874719999999968
20
-126.3118839999999921
11
177.9374719999999854
21
-126.3118839999999921
0
LINE
8
BLACK
6
CONTINUOUS
10
177.9374719999999854
20
-126.3118839999999921
11
178.0235759999999914
21
-126.3290109999999942
0
LINE
8
BLACK
6
CONTINUOUS
10
169.6264950000000056
20
-127.241193999999993
11
169.3564949999999953
21
-127.241193999999993
0
LINE
8
BLACK
6
CONTINUOUS
10
169.3564949999999953
20
-127.241193999999993
11
169.3564949999999953
21
-126.0411939999999902
0
LINE
8
BLACK
6
CONTINUOUS
10
169.3564949999999953
20
-126.0411939999999902
11
169.6264950000000056
21
-126.0411939999999902
0
LINE
8
BLACK
6
CONTINUOUS
10
169.6264950000000056
20
-126.0411939999999902
11
169.6264950000000056
21
-127.241193999999993
0
LINE
8
BLACK
6
CONTINUOUS
10
170.1264950000000056
20
-127.241193999999993
11
169.8564949999999953
21
-127.241193999999993
0
LINE
8
BLACK
6
CONTINUOUS
10
169.8564949999999953
20
-127.241193999999993
11
169.8564949999999953
21
-126.0411939999999902
0
LINE
8
BLACK
6
CONTINUOUS
10
169.8564949999999953
20
-126.0411939999999902
11
170.1264950000000056
21
-126.0411939999999902
0
LINE
8
BLACK
6
CONTINUOUS
10
170.1264950000000056
20
-126.0411939999999902
11
170.1264950000000056
21
-127.241193999999993
0
LINE
8
BLACK
6
CONTINUOUS
10
170.6264950000000056
20
-127.241193999999993
11
170.3564949999999953
21
-127.241193999999993
0
LINE
8
BLACK
6
CONTINUOUS
10
170.3564949999999953
20
-127.241193999999993
11
170.3564949999999953
21
-126.0411939999999902
0
LINE
8
BLACK
6
CONTINUOUS
10
170.3564949999999953
20
-126.0411939999999902
11
170.6264950000000056
21
-126.0411939999999902
0
LINE
8
BLACK
6
CONTINUOUS
10
170.6264950000000056
20
-126.0411939999999902
11
170.6264950000000056
21
-127.241193999999993
0
LINE
8
BLACK
6
CONTINUOUS
10
171.1264950000000056
20
-127.241193999999993
11
170.8564949999999953
21
-127.241193999999993
0
LINE
8
BLACK
6
CONTINUOUS
10
170.8564949999999953
20
-127.241193999999993
11
170.8564949999999953
21
-126.0411939999999902
0
LINE
8
BLACK
6
CONTINUOUS
10
170.8564949999999953
20
-126.0411939999999902
11
171.1264950000000056
21
-126.0411939999999902
0
LINE
8
BLACK
6
CONTINUOUS
10
171.1264950000000056
20
-126.0411939999999902
11
171.1264950000000056
21
-127.241193999999993
0
LINE
8
BLACK
6
CONTINUOUS
10
171.6264950000000056
20
-127.241193999999993
11
171.3564949999999953
21
-127.241193999999993
0
LINE
8
BLACK
6
CONTINUOUS
10
171.3564949999999953
20
-127.241193999999993
11
171.3564949999999953
21
-126.0411939999999902
0
LINE
8
BLACK
6
CONTINUOUS
10
171.3564949999999953
20
-126.0411939999999902
11
171.6264950000000056
21
-126.0411939999999902
0
LINE
8
BLACK
6
CONTINUOUS
10
171.6264950000000056
20
-126.0411939999999902
11
171.6264950000000056
21
-127.241193999999993
0
LINE
8
BLACK
6
CONTINUOUS
10
172.1264950000000056
20
-127.241193999999993
11
171.8564949999999953
21
-127.241193999999993
0
LINE
8
BLACK
6
CONTINUOUS
10
171.8564949999999953
20
-127.241193999999993
11
171.8564949999999953
21
-126.0411939999999902
0
LINE
8
BLACK
6
CONTINUOUS
10
171.8564949999999953
20
-126.0411939999999902
11
172.1264950000000056
21
-126.0411939999999902
0
LINE
8
BLACK
6
CONTINUOUS
10
172.1264950000000056
20
-126.0411939999999902
11
172.1264950000000056
21
-127.241193999999993
0
LINE
8
BLACK
6
CONTINUOUS
10
172.6264950000000056
20
-127.241193999999993
11
172.3564949999999953
21
-127.241193999999993
0
LINE
8
BLACK
6
CONTINUOUS
10
172.3564949999999953
20
-127.241193999999993
11
172.3564949999999953
21
-126.0411939999999902
0
LINE
8
BLACK
6
CONTINUOUS
10
172.3564949999999953
20
-126.0411939999999902
11
172.6264950000000056
21
-126.0411939999999902
0
LINE
8
BLACK
6
CONTINUOUS
10
172.6264950000000056
20
-126.0411939999999902
11
172.6264950000000056
21
-127.241193999999993
0
LINE
8
BLACK
6
CONTINUOUS
10
173.1264950000000056
20
-127.241193999999993
11
172.8564949999999953
21
-127.241193999999993
0
LINE
8
BLACK
6
CONTINUOUS
10
172.8564949999999953
20
-127.241193999999993
11
172.8564949999999953
21
-126.0411939999999902
0
LINE
8
BLACK
6
CONTINUOUS
10
172.8564949999999953
20
-126.0411939999999902
11
173.1264950000000056
21
-126.0411939999999902
0
LINE
8
BLACK
6
CONTINUOUS
10
173.1264950000000056
20
-126.0411939999999902
11
173.1264950000000056
21
-127.241193999999993
0
LINE
8
BLACK
6
CONTINUOUS
10
173.6264950000000056
20
-127.241193999999993
11
173.3564949999999953
21
-127.241193999999993
0
LINE
8
BLACK
6
CONTINUOUS
10
173.3564949999999953
20
-127.241193999999993
11
173.3564949999999953
21
-126.0411939999999902
0
LINE
8
BLACK
6
CONTINUOUS
10
173.3564949999999953
20
-126.0411939999999902
11
173.6264950000000056
21
-126.0411939999999902
0
LINE
8
BLACK
6
CONTINUOUS
10
173.6264950000000056
20
-126.0411939999999902
11
173.6264950000000056
21
-127.241193999999993
0
LINE
8
BLACK
6
CONTINUOUS
10
174.1264950000000056
20
-127.241193999999993
11
173.8564949999999953
21
-127.241193999999993
0
LINE
8
BLACK
6
CONTINUOUS
10
173.8564949999999953
20
-127.241193999999993
11
173.8564949999999953
21
-126.0411939999999902
0
LINE
8
BLACK
6
CONTINUOUS
10
173.8564949999999953
20
-126.0411939999999902
11
174.1264950000000056
21
-126.0411939999999902
0
LINE
8
BLACK
6
CONTINUOUS
10
174.1264950000000056
20
-126.0411939999999902
11
174.1264950000000056
21
-127.241193999999993
0
LINE
8
BLACK
6
CONTINUOUS
10
174.6264950000000056
20
-127.241193999999993
11
174.3564949999999953
21
-127.241193999999993
0
LINE
8
BLACK
6
CONTINUOUS
10
174.3564949999999953
20
-127.241193999999993
11
174.3564949999999953
21
-126.0411939999999902
0
LINE
8
BLACK
6
CONTINUOUS
10
174.3564949999999953
20
-126.0411939999999902
11
174.6264950000000056
21
-126.0411939999999902
0
LINE
8
BLACK
6
CONTINUOUS
10
174.6264950000000056
20
-126.0411939999999902
11
174.6264950000000056
21
-127.241193999999993
0
LINE
8
BLACK
6
CONTINUOUS
10
175.1264950000000056
20
-127.241193999999993
11
174.8564949999999953
21
-127.241193999999993
0
LINE
8
BLACK
6
CONTINUOUS
10
174.8564949999999953
20
-127.241193999999993
11
174.8564949999999953
21
-126.0411939999999902
0
LINE
8
BLACK
6
CONTINUOUS
10
174.8564949999999953
20
-126.0411939999999902
11
175.1264950000000056
21
-126.0411939999999902
0
LINE
8
BLACK
6
CONTINUOUS
10
175.1264950000000056
20
-126.0411939999999902
11
175.1264950000000056
21
-127.241193999999993
0
LINE
8
BLACK
6
CONTINUOUS
10
166.7525990000000036
20
-126.0678799999999882
11
166.8255939999999953
21
-126.1166539999999969
0
LINE
8
BLACK
6
CONTINUOUS
10
166.8255939999999953
20
-126.1166539999999969
11
166.874368000000004
21
-126.1896489999999886
0
LINE
8
BLACK
6
CONTINUOUS
10
166.874368000000004
20
-126.1896489999999886
11
166.8914949999999919
21
-126.2757529999999946
0
LINE
8
BLACK
6
CONTINUOUS
10
166.8914949999999919
20
-126.2757529999999946
11
166.8914949999999919
21
-126.7757529999999946
0
LINE
8
BLACK
6
CONTINUOUS
10
166.8914949999999919
20
-126.7757529999999946
11
166.874368000000004
21
-126.8618570000000005
0
LINE
8
BLACK
6
CONTINUOUS
10
166.874368000000004
20
-126.8618570000000005
11
166.8255939999999953
21
-126.9348519999999922
0
LINE
8
BLACK
6
CONTINUOUS
10
166.8255939999999953
20
-126.9348519999999922
11
166.7525990000000036
21
-126.983626000000001
0
LINE
8
BLACK
6
CONTINUOUS
10
166.7525990000000036
20
-126.983626000000001
11
166.6664949999999976
21
-127.0007529999999889
0
LINE
8
BLACK
6
CONTINUOUS
10
166.6664949999999976
20
-127.0007529999999889
11
166.2164949999999806
21
-127.0007529999999889
0
LINE
8
BLACK
6
CONTINUOUS
10
166.2164949999999806
20
-127.0007529999999889
11
166.130391000000003
21
-126.983626000000001
0
LINE
8
BLACK
6
CONTINUOUS
10
166.130391000000003
20
-126.983626000000001
11
166.0573959999999829
21
-126.9348519999999922
0
LINE
8
BLACK
6
CONTINUOUS
10
166.0573959999999829
20
-126.9348519999999922
11
166.0086220000000026
21
-126.8618570000000005
0
LINE
8
BLACK
6
CONTINUOUS
10
166.0086220000000026
20
-126.8618570000000005
11
165.9914949999999862
21
-126.7757529999999946
0
LINE
8
BLACK
6
CONTINUOUS
10
165.9914949999999862
20
-126.7757529999999946
11
165.9914949999999862
21
-126.2757529999999946
0
LINE
8
BLACK
6
CONTINUOUS
10
165.9914949999999862
20
-126.2757529999999946
11
166.0086220000000026
21
-126.1896489999999886
0
LINE
8
BLACK
6
CONTINUOUS
10
166.0086220000000026
20
-126.1896489999999886
11
166.0573959999999829
21
-126.1166539999999969
0
LINE
8
BLACK
6
CONTINUOUS
10
166.0573959999999829
20
-126.1166539999999969
11
166.130391000000003
21
-126.0678799999999882
0
LINE
8
BLACK
6
CONTINUOUS
10
166.130391000000003
20
-126.0678799999999882
11
166.2164949999999806
21
-126.0507530000000003
0
LINE
8
BLACK
6
CONTINUOUS
10
166.2164949999999806
20
-126.0507530000000003
11
166.6664949999999976
21
-126.0507530000000003
0
LINE
8
BLACK
6
CONTINUOUS
10
166.6664949999999976
20
-126.0507530000000003
11
166.7525990000000036
21
-126.0678799999999882
0
LINE
8
BLACK
6
CONTINUOUS
10
168.3025989999999865
20
-126.0678799999999882
11
168.3755939999999782
21
-126.1166539999999969
0
LINE
8
BLACK
6
CONTINUOUS
10
168.3755939999999782
20
-126.1166539999999969
11
168.424367999999987
21
-126.1896489999999886
0
LINE
8
BLACK
6
CONTINUOUS
10
168.424367999999987
20
-126.1896489999999886
11
168.4414950000000033
21
-126.2757529999999946
0
LINE
8
BLACK
6
CONTINUOUS
10
168.4414950000000033
20
-126.2757529999999946
11
168.4414950000000033
21
-126.7757529999999946
0
LINE
8
BLACK
6
CONTINUOUS
10
168.4414950000000033
20
-126.7757529999999946
11
168.424367999999987
21
-126.8618570000000005
0
LINE
8
BLACK
6
CONTINUOUS
10
168.424367999999987
20
-126.8618570000000005
11
168.3755939999999782
21
-126.9348519999999922
0
LINE
8
BLACK
6
CONTINUOUS
10
168.3755939999999782
20
-126.9348519999999922
11
168.3025989999999865
21
-126.983626000000001
0
LINE
8
BLACK
6
CONTINUOUS
10
168.3025989999999865
20
-126.983626000000001
11
168.2164949999999806
21
-127.0007529999999889
0
LINE
8
BLACK
6
CONTINUOUS
10
168.2164949999999806
20
-127.0007529999999889
11
167.7664949999999919
21
-127.0007529999999889
0
LINE
8
BLACK
6
CONTINUOUS
10
167.7664949999999919
20
-127.0007529999999889
11
167.680390999999986
21
-126.983626000000001
0
LINE
8
BLACK
6
CONTINUOUS
10
167.680390999999986
20
-126.983626000000001
11
167.6073959999999943
21
-126.9348519999999922
0
LINE
8
BLACK
6
CONTINUOUS
10
167.6073959999999943
20
-126.9348519999999922
11
167.5586219999999855
21
-126.8618570000000005
0
LINE
8
BLACK
6
CONTINUOUS
10
167.5586219999999855
20
-126.8618570000000005
11
167.5414949999999976
21
-126.7757529999999946
0
LINE
8
BLACK
6
CONTINUOUS
10
167.5414949999999976
20
-126.7757529999999946
11
167.5414949999999976
21
-126.2757529999999946
0
LINE
8
BLACK
6
CONTINUOUS
10
167.5414949999999976
20
-126.2757529999999946
11
167.5586219999999855
21
-126.1896489999999886
0
LINE
8
BLACK
6
CONTINUOUS
10
167.5586219999999855
20
-126.1896489999999886
11
167.6073959999999943
21
-126.1166539999999969
0
LINE
8
BLACK
6
CONTINUOUS
10
167.6073959999999943
20
-126.1166539999999969
11
167.680390999999986
21
-126.0678799999999882
0
LINE
8
BLACK
6
CONTINUOUS
10
167.680390999999986
20
-126.0678799999999882
11
167.7664949999999919
21
-126.0507530000000003
0
LINE
8
BLACK
6
CONTINUOUS
10
167.7664949999999919
20
-126.0507530000000003
11
168.2164949999999806
21
-126.0507530000000003
0
LINE
8
BLACK
6
CONTINUOUS
10
168.2164949999999806
20
-126.0507530000000003
11
168.3025989999999865
21
-126.0678799999999882
0
LINE
8
BLACK
6
CONTINUOUS
10
203.8511330000000044
20
-126.6988679999999903
11
202.051132999999993
21
-126.6988679999999903
0
LINE
8
BLACK
6
CONTINUOUS
10
202.051132999999993
20
-126.6988679999999903
11
202.051132999999993
21
-125.4988679999999874
0
LINE
8
BLACK
6
CONTINUOUS
10
202.051132999999993
20
-125.4988679999999874
11
203.8511330000000044
21
-125.4988679999999874
0
LINE
8
BLACK
6
CONTINUOUS
10
203.8511330000000044
20
-125.4988679999999874
11
203.8511330000000044
21
-126.6988679999999903
0
LINE
8
BLACK
6
CONTINUOUS
10
211.8511330000000044
20
-126.6988679999999903
11
210.051132999999993
21
-126.6988679999999903
0
LINE
8
BLACK
6
CONTINUOUS
10
210.051132999999993
20
-126.6988679999999903
11
210.051132999999993
21
-125.4988679999999874
0
LINE
8
BLACK
6
CONTINUOUS
10
210.051132999999993
20
-125.4988679999999874
11
211.8511330000000044
21
-125.4988679999999874
0
LINE
8
BLACK
6
CONTINUOUS
10
211.8511330000000044
20
-125.4988679999999874
11
211.8511330000000044
21
-126.6988679999999903
0
LINE
8
BLACK
6
CONTINUOUS
10
152.9057870000000037
20
-125.5378690000000006
11
152.9706709999999816
21
-125.5812239999999917
0
LINE
8
BLACK
6
CONTINUOUS
10
152.9706709999999816
20
-125.5812239999999917
11
153.0140260000000012
21
-125.6461079999999981
0
LINE
8
BLACK
6
CONTINUOUS
10
153.0140260000000012
20
-125.6461079999999981
11
153.0292499999999905
21
-125.722645
0
LINE
8
BLACK
6
CONTINUOUS
10
153.0292499999999905
20
-125.722645
11
153.0292499999999905
21
-126.2726449999999971
0
LINE
8
BLACK
6
CONTINUOUS
10
153.0292499999999905
20
-126.2726449999999971
11
153.0140260000000012
21
-126.349181999999999
0
LINE
8
BLACK
6
CONTINUOUS
10
153.0140260000000012
20
-126.349181999999999
11
152.9706709999999816
21
-126.4140659999999912
0
LINE
8
BLACK
6
CONTINUOUS
10
152.9706709999999816
20
-126.4140659999999912
11
152.9057870000000037
21
-126.4574209999999965
0
LINE
8
BLACK
6
CONTINUOUS
10
152.9057870000000037
20
-126.4574209999999965
11
152.8292500000000018
21
-126.472645
0
LINE
8
BLACK
6
CONTINUOUS
10
152.8292500000000018
20
-126.472645
11
152.4292499999999961
21
-126.472645
0
LINE
8
BLACK
6
CONTINUOUS
10
152.4292499999999961
20
-126.472645
11
152.3527129999999943
21
-126.4574209999999965
0
LINE
8
BLACK
6
CONTINUOUS
10
152.3527129999999943
20
-126.4574209999999965
11
152.2878289999999879
21
-126.4140659999999912
0
LINE
8
BLACK
6
CONTINUOUS
10
152.2878289999999879
20
-126.4140659999999912
11
152.2444739999999967
21
-126.349181999999999
0
LINE
8
BLACK
6
CONTINUOUS
10
152.2444739999999967
20
-126.349181999999999
11
152.2292499999999791
21
-126.2726449999999971
0
LINE
8
BLACK
6
CONTINUOUS
10
152.2292499999999791
20
-126.2726449999999971
11
152.2292499999999791
21
-125.722645
0
LINE
8
BLACK
6
CONTINUOUS
10
152.2292499999999791
20
-125.722645
11
152.2444739999999967
21
-125.6461079999999981
0
LINE
8
BLACK
6
CONTINUOUS
10
152.2444739999999967
20
-125.6461079999999981
11
152.2878289999999879
21
-125.5812239999999917
0
LINE
8
BLACK
6
CONTINUOUS
10
152.2878289999999879
20
-125.5812239999999917
11
152.3527129999999943
21
-125.5378690000000006
0
LINE
8
BLACK
6
CONTINUOUS
10
152.3527129999999943
20
-125.5378690000000006
11
152.4292499999999961
21
-125.5226449999999971
0
LINE
8
BLACK
6
CONTINUOUS
10
152.4292499999999961
20
-125.5226449999999971
11
152.8292500000000018
21
-125.5226449999999971
0
LINE
8
BLACK
6
CONTINUOUS
10
152.8292500000000018
20
-125.5226449999999971
11
152.9057870000000037
21
-125.5378690000000006
0
LINE
8
BLACK
6
CONTINUOUS
10
154.5557869999999809
20
-125.5378690000000006
11
154.6206709999999873
21
-125.5812239999999917
0
LINE
8
BLACK
6
CONTINUOUS
10
154.6206709999999873
20
-125.5812239999999917
11
154.6640260000000069
21
-125.6461079999999981
0
LINE
8
BLACK
6
CONTINUOUS
10
154.6640260000000069
20
-125.6461079999999981
11
154.6792499999999961
21
-125.722645
0
LINE
8
BLACK
6
CONTINUOUS
10
154.6792499999999961
20
-125.722645
11
154.6792499999999961
21
-126.2726449999999971
0
LINE
8
BLACK
6
CONTINUOUS
10
154.6792499999999961
20
-126.2726449999999971
11
154.6640260000000069
21
-126.349181999999999
0
LINE
8
BLACK
6
CONTINUOUS
10
154.6640260000000069
20
-126.349181999999999
11
154.6206709999999873
21
-126.4140659999999912
0
LINE
8
BLACK
6
CONTINUOUS
10
154.6206709999999873
20
-126.4140659999999912
11
154.5557869999999809
21
-126.4574209999999965
0
LINE
8
BLACK
6
CONTINUOUS
10
154.5557869999999809
20
-126.4574209999999965
11
154.4792499999999791
21
-126.472645
0
LINE
8
BLACK
6
CONTINUOUS
10
154.4792499999999791
20
-126.472645
11
154.0792500000000018
21
-126.472645
0
LINE
8
BLACK
6
CONTINUOUS
10
154.0792500000000018
20
-126.472645
11
154.002713
21
-126.4574209999999965
0
LINE
8
BLACK
6
CONTINUOUS
10
154.002713
20
-126.4574209999999965
11
153.9378289999999936
21
-126.4140659999999912
0
LINE
8
BLACK
6
CONTINUOUS
10
153.9378289999999936
20
-126.4140659999999912
11
153.8944740000000024
21
-126.349181999999999
0
LINE
8
BLACK
6
CONTINUOUS
10
153.8944740000000024
20
-126.349181999999999
11
153.8792499999999848
21
-126.2726449999999971
0
LINE
8
BLACK
6
CONTINUOUS
10
153.8792499999999848
20
-126.2726449999999971
11
153.8792499999999848
21
-125.722645
0
LINE
8
BLACK
6
CONTINUOUS
10
153.8792499999999848
20
-125.722645
11
153.8944740000000024
21
-125.6461079999999981
0
LINE
8
BLACK
6
CONTINUOUS
10
153.8944740000000024
20
-125.6461079999999981
11
153.9378289999999936
21
-125.5812239999999917
0
LINE
8
BLACK
6
CONTINUOUS
10
153.9378289999999936
20
-125.5812239999999917
11
154.002713
21
-125.5378690000000006
0
LINE
8
BLACK
6
CONTINUOUS
10
154.002713
20
-125.5378690000000006
11
154.0792500000000018
21
-125.5226449999999971
0
LINE
8
BLACK
6
CONTINUOUS
10
154.0792500000000018
20
-125.5226449999999971
11
154.4792499999999791
21
-125.5226449999999971
0
LINE
8
BLACK
6
CONTINUOUS
10
154.4792499999999791
20
-125.5226449999999971
11
154.5557869999999809
21
-125.5378690000000006
0
LINE
8
BLACK
6
CONTINUOUS
10
157.9485479999999882
20
-125.2794090000000011
11
158.0134319999999946
21
-125.3227639999999923
0
LINE
8
BLACK
6
CONTINUOUS
10
158.0134319999999946
20
-125.3227639999999923
11
158.0567869999999857
21
-125.3876479999999987
0
LINE
8
BLACK
6
CONTINUOUS
10
158.0567869999999857
20
-125.3876479999999987
11
158.0720110000000034
21
-125.4641850000000005
0
LINE
8
BLACK
6
CONTINUOUS
10
158.0720110000000034
20
-125.4641850000000005
11
158.0720110000000034
21
-125.864184999999992
0
LINE
8
BLACK
6
CONTINUOUS
10
158.0720110000000034
20
-125.864184999999992
11
158.0567869999999857
21
-125.9407219999999938
0
LINE
8
BLACK
6
CONTINUOUS
10
158.0567869999999857
20
-125.9407219999999938
11
158.0134319999999946
21
-126.0056060000000002
0
LINE
8
BLACK
6
CONTINUOUS
10
158.0134319999999946
20
-126.0056060000000002
11
157.9485479999999882
21
-126.0489609999999914
0
LINE
8
BLACK
6
CONTINUOUS
10
157.9485479999999882
20
-126.0489609999999914
11
157.8720109999999863
21
-126.0641849999999948
0
LINE
8
BLACK
6
CONTINUOUS
10
157.8720109999999863
20
-126.0641849999999948
11
157.3220110000000034
21
-126.0641849999999948
0
LINE
8
BLACK
6
CONTINUOUS
10
157.3220110000000034
20
-126.0641849999999948
11
157.2454740000000015
21
-126.0489609999999914
0
LINE
8
BLACK
6
CONTINUOUS
10
157.2454740000000015
20
-126.0489609999999914
11
157.1805899999999951
21
-126.0056060000000002
0
LINE
8
BLACK
6
CONTINUOUS
10
157.1805899999999951
20
-126.0056060000000002
11
157.137235000000004
21
-125.9407219999999938
0
LINE
8
BLACK
6
CONTINUOUS
10
157.137235000000004
20
-125.9407219999999938
11
157.1220109999999863
21
-125.864184999999992
0
LINE
8
BLACK
6
CONTINUOUS
10
157.1220109999999863
20
-125.864184999999992
11
157.1220109999999863
21
-125.4641850000000005
0
LINE
8
BLACK
6
CONTINUOUS
10
157.1220109999999863
20
-125.4641850000000005
11
157.137235000000004
21
-125.3876479999999987
0
LINE
8
BLACK
6
CONTINUOUS
10
157.137235000000004
20
-125.3876479999999987
11
157.1805899999999951
21
-125.3227639999999923
0
LINE
8
BLACK
6
CONTINUOUS
10
157.1805899999999951
20
-125.3227639999999923
11
157.2454740000000015
21
-125.2794090000000011
0
LINE
8
BLACK
6
CONTINUOUS
10
157.2454740000000015
20
-125.2794090000000011
11
157.3220110000000034
21
-125.2641849999999977
0
LINE
8
BLACK
6
CONTINUOUS
10
157.3220110000000034
20
-125.2641849999999977
11
157.8720109999999863
21
-125.2641849999999977
0
LINE
8
BLACK
6
CONTINUOUS
10
157.8720109999999863
20
-125.2641849999999977
11
157.9485479999999882
21
-125.2794090000000011
0
LINE
8
BLACK
6
CONTINUOUS
10
159.4158089999999959
20
-124.5322630000000004
11
159.4644720000000007
21
-124.5647789999999873
0
LINE
8
BLACK
6
CONTINUOUS
10
159.4644720000000007
20
-124.5647789999999873
11
159.4969879999999876
21
-124.613441999999992
0
LINE
8
BLACK
6
CONTINUOUS
10
159.4969879999999876
20
-124.613441999999992
11
159.5084059999999795
21
-124.6708449999999999
0
LINE
8
BLACK
6
CONTINUOUS
10
159.5084059999999795
20
-124.6708449999999999
11
159.5084059999999795
21
-125.8458449999999971
0
LINE
8
BLACK
6
CONTINUOUS
10
159.5084059999999795
20
-125.8458449999999971
11
159.4969879999999876
21
-125.9032479999999907
0
LINE
8
BLACK
6
CONTINUOUS
10
159.4969879999999876
20
-125.9032479999999907
11
159.4644720000000007
21
-125.9519109999999955
0
LINE
8
BLACK
6
CONTINUOUS
10
159.4644720000000007
20
-125.9519109999999955
11
159.4158089999999959
21
-125.9844269999999966
0
LINE
8
BLACK
6
CONTINUOUS
10
159.4158089999999959
20
-125.9844269999999966
11
159.3584060000000022
21
-125.9958449999999885
0
LINE
8
BLACK
6
CONTINUOUS
10
159.3584060000000022
20
-125.9958449999999885
11
159.0584059999999909
21
-125.9958449999999885
0
LINE
8
BLACK
6
CONTINUOUS
10
159.0584059999999909
20
-125.9958449999999885
11
159.0010029999999972
21
-125.9844269999999966
0
LINE
8
BLACK
6
CONTINUOUS
10
159.0010029999999972
20
-125.9844269999999966
11
158.9523399999999924
21
-125.9519109999999955
0
LINE
8
BLACK
6
CONTINUOUS
10
158.9523399999999924
20
-125.9519109999999955
11
158.9198240000000055
21
-125.9032479999999907
0
LINE
8
BLACK
6
CONTINUOUS
10
158.9198240000000055
20
-125.9032479999999907
11
158.9084059999999852
21
-125.8458449999999971
0
LINE
8
BLACK
6
CONTINUOUS
10
158.9084059999999852
20
-125.8458449999999971
11
158.9084059999999852
21
-124.6708449999999999
0
LINE
8
BLACK
6
CONTINUOUS
10
158.9084059999999852
20
-124.6708449999999999
11
158.9198240000000055
21
-124.613441999999992
0
LINE
8
BLACK
6
CONTINUOUS
10
158.9198240000000055
20
-124.613441999999992
11
158.9523399999999924
21
-124.5647789999999873
0
LINE
8
BLACK
6
CONTINUOUS
10
158.9523399999999924
20
-124.5647789999999873
11
159.0010029999999972
21
-124.5322630000000004
0
LINE
8
BLACK
6
CONTINUOUS
10
159.0010029999999972
20
-124.5322630000000004
11
159.0584059999999909
21
-124.5208449999999942
0
LINE
8
BLACK
6
CONTINUOUS
10
159.0584059999999909
20
-124.5208449999999942
11
159.3584060000000022
21
-124.5208449999999942
0
LINE
8
BLACK
6
CONTINUOUS
10
159.3584060000000022
20
-124.5208449999999942
11
159.4158089999999959
21
-124.5322630000000004
0
LINE
8
BLACK
6
CONTINUOUS
10
161.3158090000000016
20
-124.5322630000000004
11
161.3644720000000063
21
-124.5647789999999873
0
LINE
8
BLACK
6
CONTINUOUS
10
161.3644720000000063
20
-124.5647789999999873
11
161.3969879999999932
21
-124.613441999999992
0
LINE
8
BLACK
6
CONTINUOUS
10
161.3969879999999932
20
-124.613441999999992
11
161.4084059999999852
21
-124.6708449999999999
0
LINE
8
BLACK
6
CONTINUOUS
10
161.4084059999999852
20
-124.6708449999999999
11
161.4084059999999852
21
-125.8458449999999971
0
LINE
8
BLACK
6
CONTINUOUS
10
161.4084059999999852
20
-125.8458449999999971
11
161.3969879999999932
21
-125.9032479999999907
0
LINE
8
BLACK
6
CONTINUOUS
10
161.3969879999999932
20
-125.9032479999999907
11
161.3644720000000063
21
-125.9519109999999955
0
LINE
8
BLACK
6
CONTINUOUS
10
161.3644720000000063
20
-125.9519109999999955
11
161.3158090000000016
21
-125.9844269999999966
0
LINE
8
BLACK
6
CONTINUOUS
10
161.3158090000000016
20
-125.9844269999999966
11
161.2584059999999795
21
-125.9958449999999885
0
LINE
8
BLACK
6
CONTINUOUS
10
161.2584059999999795
20
-125.9958449999999885
11
160.9584059999999965
21
-125.9958449999999885
0
LINE
8
BLACK
6
CONTINUOUS
10
160.9584059999999965
20
-125.9958449999999885
11
160.9010030000000029
21
-125.9844269999999966
0
LINE
8
BLACK
6
CONTINUOUS
10
160.9010030000000029
20
-125.9844269999999966
11
160.8523399999999981
21
-125.9519109999999955
0
LINE
8
BLACK
6
CONTINUOUS
10
160.8523399999999981
20
-125.9519109999999955
11
160.8198239999999828
21
-125.9032479999999907
0
LINE
8
BLACK
6
CONTINUOUS
10
160.8198239999999828
20
-125.9032479999999907
11
160.8084059999999909
21
-125.8458449999999971
0
LINE
8
BLACK
6
CONTINUOUS
10
160.8084059999999909
20
-125.8458449999999971
11
160.8084059999999909
21
-124.6708449999999999
0
LINE
8
BLACK
6
CONTINUOUS
10
160.8084059999999909
20
-124.6708449999999999
11
160.8198239999999828
21
-124.613441999999992
0
LINE
8
BLACK
6
CONTINUOUS
10
160.8198239999999828
20
-124.613441999999992
11
160.8523399999999981
21
-124.5647789999999873
0
LINE
8
BLACK
6
CONTINUOUS
10
160.8523399999999981
20
-124.5647789999999873
11
160.9010030000000029
21
-124.5322630000000004
0
LINE
8
BLACK
6
CONTINUOUS
10
160.9010030000000029
20
-124.5322630000000004
11
160.9584059999999965
21
-124.5208449999999942
0
LINE
8
BLACK
6
CONTINUOUS
10
160.9584059999999965
20
-124.5208449999999942
11
161.2584059999999795
21
-124.5208449999999942
0
LINE
8
BLACK
6
CONTINUOUS
10
161.2584059999999795
20
-124.5208449999999942
11
161.3158090000000016
21
-124.5322630000000004
0
LINE
8
BLACK
6
CONTINUOUS
10
168.7414949999999862
20
-125.4261939999999953
11
167.5414949999999976
21
-125.4261939999999953
0
LINE
8
BLACK
6
CONTINUOUS
10
167.5414949999999976
20
-125.4261939999999953
11
167.5414949999999976
21
-125.1561939999999993
0
LINE
8
BLACK
6
CONTINUOUS
10
167.5414949999999976
20
-125.1561939999999993
11
168.7414949999999862
21
-125.1561939999999993
0
LINE
8
BLACK
6
CONTINUOUS
10
168.7414949999999862
20
-125.1561939999999993
11
168.7414949999999862
21
-125.4261939999999953
0
LINE
8
BLACK
6
CONTINUOUS
10
176.9414950000000033
20
-125.4261939999999953
11
175.7414949999999862
21
-125.4261939999999953
0
LINE
8
BLACK
6
CONTINUOUS
10
175.7414949999999862
20
-125.4261939999999953
11
175.7414949999999862
21
-125.1561939999999993
0
LINE
8
BLACK
6
CONTINUOUS
10
175.7414949999999862
20
-125.1561939999999993
11
176.9414950000000033
21
-125.1561939999999993
0
LINE
8
BLACK
6
CONTINUOUS
10
176.9414950000000033
20
-125.1561939999999993
11
176.9414950000000033
21
-125.4261939999999953
0
LINE
8
BLACK
6
CONTINUOUS
10
156.0312049999999999
20
-124.4904339999999934
11
156.1041999999999916
21
-124.5392079999999879
0
LINE
8
BLACK
6
CONTINUOUS
10
156.1041999999999916
20
-124.5392079999999879
11
156.1529740000000004
21
-124.6122029999999938
0
LINE
8
BLACK
6
CONTINUOUS
10
156.1529740000000004
20
-124.6122029999999938
11
156.1701009999999883
21
-124.6983069999999998
0
LINE
8
BLACK
6
CONTINUOUS
10
156.1701009999999883
20
-124.6983069999999998
11
156.1701009999999883
21
-125.1483069999999884
0
LINE
8
BLACK
6
CONTINUOUS
10
156.1701009999999883
20
-125.1483069999999884
11
156.1529740000000004
21
-125.2344109999999944
0
LINE
8
BLACK
6
CONTINUOUS
10
156.1529740000000004
20
-125.2344109999999944
11
156.1041999999999916
21
-125.3074060000000003
0
LINE
8
BLACK
6
CONTINUOUS
10
156.1041999999999916
20
-125.3074060000000003
11
156.0312049999999999
21
-125.3561799999999948
0
LINE
8
BLACK
6
CONTINUOUS
10
156.0312049999999999
20
-125.3561799999999948
11
155.945100999999994
21
-125.3733069999999969
0
LINE
8
BLACK
6
CONTINUOUS
10
155.945100999999994
20
-125.3733069999999969
11
155.445100999999994
21
-125.3733069999999969
0
LINE
8
BLACK
6
CONTINUOUS
10
155.445100999999994
20
-125.3733069999999969
11
155.358996999999988
21
-125.3561799999999948
0
LINE
8
BLACK
6
CONTINUOUS
10
155.358996999999988
20
-125.3561799999999948
11
155.2860019999999963
21
-125.3074060000000003
0
LINE
8
BLACK
6
CONTINUOUS
10
155.2860019999999963
20
-125.3074060000000003
11
155.2372279999999876
21
-125.2344109999999944
0
LINE
8
BLACK
6
CONTINUOUS
10
155.2372279999999876
20
-125.2344109999999944
11
155.2201009999999997
21
-125.1483069999999884
0
LINE
8
BLACK
6
CONTINUOUS
10
155.2201009999999997
20
-125.1483069999999884
11
155.2201009999999997
21
-124.6983069999999998
0
LINE
8
BLACK
6
CONTINUOUS
10
155.2201009999999997
20
-124.6983069999999998
11
155.2372279999999876
21
-124.6122029999999938
0
LINE
8
BLACK
6
CONTINUOUS
10
155.2372279999999876
20
-124.6122029999999938
11
155.2860019999999963
21
-124.5392079999999879
0
LINE
8
BLACK
6
CONTINUOUS
10
155.2860019999999963
20
-124.5392079999999879
11
155.358996999999988
21
-124.4904339999999934
0
LINE
8
BLACK
6
CONTINUOUS
10
155.358996999999988
20
-124.4904339999999934
11
155.445100999999994
21
-124.4733069999999913
0
LINE
8
BLACK
6
CONTINUOUS
10
155.445100999999994
20
-124.4733069999999913
11
155.945100999999994
21
-124.4733069999999913
0
LINE
8
BLACK
6
CONTINUOUS
10
155.945100999999994
20
-124.4733069999999913
11
156.0312049999999999
21
-124.4904339999999934
0
LINE
8
BLACK
6
CONTINUOUS
10
178.7783709999999928
20
-124.1208169999999882
11
178.8513659999999845
21
-124.1695909999999969
0
LINE
8
BLACK
6
CONTINUOUS
10
178.8513659999999845
20
-124.1695909999999969
11
178.9001399999999933
21
-124.2425859999999886
0
LINE
8
BLACK
6
CONTINUOUS
10
178.9001399999999933
20
-124.2425859999999886
11
178.9172669999999812
21
-124.3286899999999946
0
LINE
8
BLACK
6
CONTINUOUS
10
178.9172669999999812
20
-124.3286899999999946
11
178.9172669999999812
21
-124.8286899999999946
0
LINE
8
BLACK
6
CONTINUOUS
10
178.9172669999999812
20
-124.8286899999999946
11
178.9001399999999933
21
-124.9147940000000006
0
LINE
8
BLACK
6
CONTINUOUS
10
178.9001399999999933
20
-124.9147940000000006
11
178.8513659999999845
21
-124.9877889999999923
0
LINE
8
BLACK
6
CONTINUOUS
10
178.8513659999999845
20
-124.9877889999999923
11
178.7783709999999928
21
-125.036563000000001
0
LINE
8
BLACK
6
CONTINUOUS
10
178.7783709999999928
20
-125.036563000000001
11
178.6922669999999869
21
-125.0536899999999889
0
LINE
8
BLACK
6
CONTINUOUS
10
178.6922669999999869
20
-125.0536899999999889
11
178.2422669999999982
21
-125.0536899999999889
0
LINE
8
BLACK
6
CONTINUOUS
10
178.2422669999999982
20
-125.0536899999999889
11
178.1561629999999923
21
-125.036563000000001
0
LINE
8
BLACK
6
CONTINUOUS
10
178.1561629999999923
20
-125.036563000000001
11
178.0831680000000006
21
-124.9877889999999923
0
LINE
8
BLACK
6
CONTINUOUS
10
178.0831680000000006
20
-124.9877889999999923
11
178.0343939999999918
21
-124.9147940000000006
0
LINE
8
BLACK
6
CONTINUOUS
10
178.0343939999999918
20
-124.9147940000000006
11
178.0172670000000039
21
-124.8286899999999946
0
LINE
8
BLACK
6
CONTINUOUS
10
178.0172670000000039
20
-124.8286899999999946
11
178.0172670000000039
21
-124.3286899999999946
0
LINE
8
BLACK
6
CONTINUOUS
10
178.0172670000000039
20
-124.3286899999999946
11
178.0343939999999918
21
-124.2425859999999886
0
LINE
8
BLACK
6
CONTINUOUS
10
178.0343939999999918
20
-124.2425859999999886
11
178.0831680000000006
21
-124.1695909999999969
0
LINE
8
BLACK
6
CONTINUOUS
10
178.0831680000000006
20
-124.1695909999999969
11
178.1561629999999923
21
-124.1208169999999882
0
LINE
8
BLACK
6
CONTINUOUS
10
178.1561629999999923
20
-124.1208169999999882
11
178.2422669999999982
21
-124.1036900000000003
0
LINE
8
BLACK
6
CONTINUOUS
10
178.2422669999999982
20
-124.1036900000000003
11
178.6922669999999869
21
-124.1036900000000003
0
LINE
8
BLACK
6
CONTINUOUS
10
178.6922669999999869
20
-124.1036900000000003
11
178.7783709999999928
21
-124.1208169999999882
0
LINE
8
BLACK
6
CONTINUOUS
10
180.3283710000000042
20
-124.1208169999999882
11
180.4013659999999959
21
-124.1695909999999969
0
LINE
8
BLACK
6
CONTINUOUS
10
180.4013659999999959
20
-124.1695909999999969
11
180.4501400000000046
21
-124.2425859999999886
0
LINE
8
BLACK
6
CONTINUOUS
10
180.4501400000000046
20
-124.2425859999999886
11
180.4672669999999925
21
-124.3286899999999946
0
LINE
8
BLACK
6
CONTINUOUS
10
180.4672669999999925
20
-124.3286899999999946
11
180.4672669999999925
21
-124.8286899999999946
0
LINE
8
BLACK
6
CONTINUOUS
10
180.4672669999999925
20
-124.8286899999999946
11
180.4501400000000046
21
-124.9147940000000006
0
LINE
8
BLACK
6
CONTINUOUS
10
180.4501400000000046
20
-124.9147940000000006
11
180.4013659999999959
21
-124.9877889999999923
0
LINE
8
BLACK
6
CONTINUOUS
10
180.4013659999999959
20
-124.9877889999999923
11
180.3283710000000042
21
-125.036563000000001
0
LINE
8
BLACK
6
CONTINUOUS
10
180.3283710000000042
20
-125.036563000000001
11
180.2422669999999982
21
-125.0536899999999889
0
LINE
8
BLACK
6
CONTINUOUS
10
180.2422669999999982
20
-125.0536899999999889
11
179.7922669999999812
21
-125.0536899999999889
0
LINE
8
BLACK
6
CONTINUOUS
10
179.7922669999999812
20
-125.0536899999999889
11
179.7061630000000036
21
-125.036563000000001
0
LINE
8
BLACK
6
CONTINUOUS
10
179.7061630000000036
20
-125.036563000000001
11
179.6331679999999835
21
-124.9877889999999923
0
LINE
8
BLACK
6
CONTINUOUS
10
179.6331679999999835
20
-124.9877889999999923
11
179.5843940000000032
21
-124.9147940000000006
0
LINE
8
BLACK
6
CONTINUOUS
10
179.5843940000000032
20
-124.9147940000000006
11
179.5672669999999869
21
-124.8286899999999946
0
LINE
8
BLACK
6
CONTINUOUS
10
179.5672669999999869
20
-124.8286899999999946
11
179.5672669999999869
21
-124.3286899999999946
0
LINE
8
BLACK
6
CONTINUOUS
10
179.5672669999999869
20
-124.3286899999999946
11
179.5843940000000032
21
-124.2425859999999886
0
LINE
8
BLACK
6
CONTINUOUS
10
179.5843940000000032
20
-124.2425859999999886
11
179.6331679999999835
21
-124.1695909999999969
0
LINE
8
BLACK
6
CONTINUOUS
10
179.6331679999999835
20
-124.1695909999999969
11
179.7061630000000036
21
-124.1208169999999882
0
LINE
8
BLACK
6
CONTINUOUS
10
179.7061630000000036
20
-124.1208169999999882
11
179.7922669999999812
21
-124.1036900000000003
0
LINE
8
BLACK
6
CONTINUOUS
10
179.7922669999999812
20
-124.1036900000000003
11
180.2422669999999982
21
-124.1036900000000003
0
LINE
8
BLACK
6
CONTINUOUS
10
180.2422669999999982
20
-124.1036900000000003
11
180.3283710000000042
21
-124.1208169999999882
0
LINE
8
BLACK
6
CONTINUOUS
10
152.9336700000000064
20
-124.026606000000001
11
152.9985539999999844
21
-124.0699609999999922
0
LINE
8
BLACK
6
CONTINUOUS
10
152.9985539999999844
20
-124.0699609999999922
11
153.041909000000004
21
-124.1348449999999985
0
LINE
8
BLACK
6
CONTINUOUS
10
153.041909000000004
20
-124.1348449999999985
11
153.0571329999999932
21
-124.2113820000000004
0
LINE
8
BLACK
6
CONTINUOUS
10
153.0571329999999932
20
-124.2113820000000004
11
153.0571329999999932
21
-124.7613819999999976
0
LINE
8
BLACK
6
CONTINUOUS
10
153.0571329999999932
20
-124.7613819999999976
11
153.041909000000004
21
-124.8379189999999994
0
LINE
8
BLACK
6
CONTINUOUS
10
153.041909000000004
20
-124.8379189999999994
11
152.9985539999999844
21
-124.9028029999999916
0
LINE
8
BLACK
6
CONTINUOUS
10
152.9985539999999844
20
-124.9028029999999916
11
152.9336700000000064
21
-124.9461579999999969
0
LINE
8
BLACK
6
CONTINUOUS
10
152.9336700000000064
20
-124.9461579999999969
11
152.8571330000000046
21
-124.9613820000000004
0
LINE
8
BLACK
6
CONTINUOUS
10
152.8571330000000046
20
-124.9613820000000004
11
152.4571329999999989
21
-124.9613820000000004
0
LINE
8
BLACK
6
CONTINUOUS
10
152.4571329999999989
20
-124.9613820000000004
11
152.380595999999997
21
-124.9461579999999969
0
LINE
8
BLACK
6
CONTINUOUS
10
152.380595999999997
20
-124.9461579999999969
11
152.3157119999999907
21
-124.9028029999999916
0
LINE
8
BLACK
6
CONTINUOUS
10
152.3157119999999907
20
-124.9028029999999916
11
152.2723569999999995
21
-124.8379189999999994
0
LINE
8
BLACK
6
CONTINUOUS
10
152.2723569999999995
20
-124.8379189999999994
11
152.2571329999999818
21
-124.7613819999999976
0
LINE
8
BLACK
6
CONTINUOUS
10
152.2571329999999818
20
-124.7613819999999976
11
152.2571329999999818
21
-124.2113820000000004
0
LINE
8
BLACK
6
CONTINUOUS
10
152.2571329999999818
20
-124.2113820000000004
11
152.2723569999999995
21
-124.1348449999999985
0
LINE
8
BLACK
6
CONTINUOUS
10
152.2723569999999995
20
-124.1348449999999985
11
152.3157119999999907
21
-124.0699609999999922
0
LINE
8
BLACK
6
CONTINUOUS
10
152.3157119999999907
20
-124.0699609999999922
11
152.380595999999997
21
-124.026606000000001
0
LINE
8
BLACK
6
CONTINUOUS
10
152.380595999999997
20
-124.026606000000001
11
152.4571329999999989
21
-124.0113819999999976
0
LINE
8
BLACK
6
CONTINUOUS
10
152.4571329999999989
20
-124.0113819999999976
11
152.8571330000000046
21
-124.0113819999999976
0
LINE
8
BLACK
6
CONTINUOUS
10
152.8571330000000046
20
-124.0113819999999976
11
152.9336700000000064
21
-124.026606000000001
0
LINE
8
BLACK
6
CONTINUOUS
10
154.5836699999999837
20
-124.026606000000001
11
154.6485539999999901
21
-124.0699609999999922
0
LINE
8
BLACK
6
CONTINUOUS
10
154.6485539999999901
20
-124.0699609999999922
11
154.6919089999999812
21
-124.1348449999999985
0
LINE
8
BLACK
6
CONTINUOUS
10
154.6919089999999812
20
-124.1348449999999985
11
154.7071329999999989
21
-124.2113820000000004
0
LINE
8
BLACK
6
CONTINUOUS
10
154.7071329999999989
20
-124.2113820000000004
11
154.7071329999999989
21
-124.7613819999999976
0
LINE
8
BLACK
6
CONTINUOUS
10
154.7071329999999989
20
-124.7613819999999976
11
154.6919089999999812
21
-124.8379189999999994
0
LINE
8
BLACK
6
CONTINUOUS
10
154.6919089999999812
20
-124.8379189999999994
11
154.6485539999999901
21
-124.9028029999999916
0
LINE
8
BLACK
6
CONTINUOUS
10
154.6485539999999901
20
-124.9028029999999916
11
154.5836699999999837
21
-124.9461579999999969
0
LINE
8
BLACK
6
CONTINUOUS
10
154.5836699999999837
20
-124.9461579999999969
11
154.5071329999999818
21
-124.9613820000000004
0
LINE
8
BLACK
6
CONTINUOUS
10
154.5071329999999818
20
-124.9613820000000004
11
154.1071330000000046
21
-124.9613820000000004
0
LINE
8
BLACK
6
CONTINUOUS
10
154.1071330000000046
20
-124.9613820000000004
11
154.0305960000000027
21
-124.9461579999999969
0
LINE
8
BLACK
6
CONTINUOUS
10
154.0305960000000027
20
-124.9461579999999969
11
153.9657119999999964
21
-124.9028029999999916
0
LINE
8
BLACK
6
CONTINUOUS
10
153.9657119999999964
20
-124.9028029999999916
11
153.9223570000000052
21
-124.8379189999999994
0
LINE
8
BLACK
6
CONTINUOUS
10
153.9223570000000052
20
-124.8379189999999994
11
153.9071329999999875
21
-124.7613819999999976
0
LINE
8
BLACK
6
CONTINUOUS
10
153.9071329999999875
20
-124.7613819999999976
11
153.9071329999999875
21
-124.2113820000000004
0
LINE
8
BLACK
6
CONTINUOUS
10
153.9071329999999875
20
-124.2113820000000004
11
153.9223570000000052
21
-124.1348449999999985
0
LINE
8
BLACK
6
CONTINUOUS
10
153.9223570000000052
20
-124.1348449999999985
11
153.9657119999999964
21
-124.0699609999999922
0
LINE
8
BLACK
6
CONTINUOUS
10
153.9657119999999964
20
-124.0699609999999922
11
154.0305960000000027
21
-124.026606000000001
0
LINE
8
BLACK
6
CONTINUOUS
10
154.0305960000000027
20
-124.026606000000001
11
154.1071330000000046
21
-124.0113819999999976
0
LINE
8
BLACK
6
CONTINUOUS
10
154.1071330000000046
20
-124.0113819999999976
11
154.5071329999999818
21
-124.0113819999999976
0
LINE
8
BLACK
6
CONTINUOUS
10
154.5071329999999818
20
-124.0113819999999976
11
154.5836699999999837
21
-124.026606000000001
0
LINE
8
BLACK
6
CONTINUOUS
10
168.7414949999999862
20
-124.9261939999999953
11
167.5414949999999976
21
-124.9261939999999953
0
LINE
8
BLACK
6
CONTINUOUS
10
167.5414949999999976
20
-124.9261939999999953
11
167.5414949999999976
21
-124.6561939999999993
0
LINE
8
BLACK
6
CONTINUOUS
10
167.5414949999999976
20
-124.6561939999999993
11
168.7414949999999862
21
-124.6561939999999993
0
LINE
8
BLACK
6
CONTINUOUS
10
168.7414949999999862
20
-124.6561939999999993
11
168.7414949999999862
21
-124.9261939999999953
0
LINE
8
BLACK
6
CONTINUOUS
10
176.9414950000000033
20
-124.9261939999999953
11
175.7414949999999862
21
-124.9261939999999953
0
LINE
8
BLACK
6
CONTINUOUS
10
175.7414949999999862
20
-124.9261939999999953
11
175.7414949999999862
21
-124.6561939999999993
0
LINE
8
BLACK
6
CONTINUOUS
10
175.7414949999999862
20
-124.6561939999999993
11
176.9414950000000033
21
-124.6561939999999993
0
LINE
8
BLACK
6
CONTINUOUS
10
176.9414950000000033
20
-124.6561939999999993
11
176.9414950000000033
21
-124.9261939999999953
0
LINE
8
BLACK
6
CONTINUOUS
10
168.7414949999999862
20
-124.4261939999999953
11
167.5414949999999976
21
-124.4261939999999953
0
LINE
8
BLACK
6
CONTINUOUS
10
167.5414949999999976
20
-124.4261939999999953
11
167.5414949999999976
21
-124.1561939999999993
0
LINE
8
BLACK
6
CONTINUOUS
10
167.5414949999999976
20
-124.1561939999999993
11
168.7414949999999862
21
-124.1561939999999993
0
LINE
8
BLACK
6
CONTINUOUS
10
168.7414949999999862
20
-124.1561939999999993
11
168.7414949999999862
21
-124.4261939999999953
0
LINE
8
BLACK
6
CONTINUOUS
10
176.9414950000000033
20
-124.4261939999999953
11
175.7414949999999862
21
-124.4261939999999953
0
LINE
8
BLACK
6
CONTINUOUS
10
175.7414949999999862
20
-124.4261939999999953
11
175.7414949999999862
21
-124.1561939999999993
0
LINE
8
BLACK
6
CONTINUOUS
10
175.7414949999999862
20
-124.1561939999999993
11
176.9414950000000033
21
-124.1561939999999993
0
LINE
8
BLACK
6
CONTINUOUS
10
176.9414950000000033
20
-124.1561939999999993
11
176.9414950000000033
21
-124.4261939999999953
0
LINE
8
BLACK
6
CONTINUOUS
10
157.9485479999999882
20
-123.6294089999999954
11
158.0134319999999946
21
-123.6727640000000008
0
LINE
8
BLACK
6
CONTINUOUS
10
158.0134319999999946
20
-123.6727640000000008
11
158.0567869999999857
21
-123.737647999999993
0
LINE
8
BLACK
6
CONTINUOUS
10
158.0567869999999857
20
-123.737647999999993
11
158.0720110000000034
21
-123.8141849999999948
0
LINE
8
BLACK
6
CONTINUOUS
10
158.0720110000000034
20
-123.8141849999999948
11
158.0720110000000034
21
-124.2141850000000005
0
LINE
8
BLACK
6
CONTINUOUS
10
158.0720110000000034
20
-124.2141850000000005
11
158.0567869999999857
21
-124.2907219999999882
0
LINE
8
BLACK
6
CONTINUOUS
10
158.0567869999999857
20
-124.2907219999999882
11
158.0134319999999946
21
-124.3556059999999945
0
LINE
8
BLACK
6
CONTINUOUS
10
158.0134319999999946
20
-124.3556059999999945
11
157.9485479999999882
21
-124.3989609999999999
0
LINE
8
BLACK
6
CONTINUOUS
10
157.9485479999999882
20
-124.3989609999999999
11
157.8720109999999863
21
-124.4141849999999891
0
LINE
8
BLACK
6
CONTINUOUS
10
157.8720109999999863
20
-124.4141849999999891
11
157.3220110000000034
21
-124.4141849999999891
0
LINE
8
BLACK
6
CONTINUOUS
10
157.3220110000000034
20
-124.4141849999999891
11
157.2454740000000015
21
-124.3989609999999999
0
LINE
8
BLACK
6
CONTINUOUS
10
157.2454740000000015
20
-124.3989609999999999
11
157.1805899999999951
21
-124.3556059999999945
0
LINE
8
BLACK
6
CONTINUOUS
10
157.1805899999999951
20
-124.3556059999999945
11
157.137235000000004
21
-124.2907219999999882
0
LINE
8
BLACK
6
CONTINUOUS
10
157.137235000000004
20
-124.2907219999999882
11
157.1220109999999863
21
-124.2141850000000005
0
LINE
8
BLACK
6
CONTINUOUS
10
157.1220109999999863
20
-124.2141850000000005
11
157.1220109999999863
21
-123.8141849999999948
0
LINE
8
BLACK
6
CONTINUOUS
10
157.1220109999999863
20
-123.8141849999999948
11
157.137235000000004
21
-123.737647999999993
0
LINE
8
BLACK
6
CONTINUOUS
10
157.137235000000004
20
-123.737647999999993
11
157.1805899999999951
21
-123.6727640000000008
0
LINE
8
BLACK
6
CONTINUOUS
10
157.1805899999999951
20
-123.6727640000000008
11
157.2454740000000015
21
-123.6294089999999954
0
LINE
8
BLACK
6
CONTINUOUS
10
157.2454740000000015
20
-123.6294089999999954
11
157.3220110000000034
21
-123.614184999999992
0
LINE
8
BLACK
6
CONTINUOUS
10
157.3220110000000034
20
-123.614184999999992
11
157.8720109999999863
21
-123.614184999999992
0
LINE
8
BLACK
6
CONTINUOUS
10
157.8720109999999863
20
-123.614184999999992
11
157.9485479999999882
21
-123.6294089999999954
0
LINE
8
BLACK
6
CONTINUOUS
10
160.3658089999999845
20
-122.6572630000000004
11
160.4144719999999893
21
-122.6897790000000015
0
LINE
8
BLACK
6
CONTINUOUS
10
160.4144719999999893
20
-122.6897790000000015
11
160.4469880000000046
21
-122.738441999999992
0
LINE
8
BLACK
6
CONTINUOUS
10
160.4469880000000046
20
-122.738441999999992
11
160.4584059999999965
21
-122.7958449999999999
0
LINE
8
BLACK
6
CONTINUOUS
10
160.4584059999999965
20
-122.7958449999999999
11
160.4584059999999965
21
-123.9708449999999971
0
LINE
8
BLACK
6
CONTINUOUS
10
160.4584059999999965
20
-123.9708449999999971
11
160.4469880000000046
21
-124.0282479999999907
0
LINE
8
BLACK
6
CONTINUOUS
10
160.4469880000000046
20
-124.0282479999999907
11
160.4144719999999893
21
-124.0769109999999955
0
LINE
8
BLACK
6
CONTINUOUS
10
160.4144719999999893
20
-124.0769109999999955
11
160.3658089999999845
21
-124.1094269999999966
0
LINE
8
BLACK
6
CONTINUOUS
10
160.3658089999999845
20
-124.1094269999999966
11
160.3084059999999909
21
-124.1208449999999885
0
LINE
8
BLACK
6
CONTINUOUS
10
160.3084059999999909
20
-124.1208449999999885
11
160.0084059999999795
21
-124.1208449999999885
0
LINE
8
BLACK
6
CONTINUOUS
10
160.0084059999999795
20
-124.1208449999999885
11
159.9510029999999858
21
-124.1094269999999966
0
LINE
8
BLACK
6
CONTINUOUS
10
159.9510029999999858
20
-124.1094269999999966
11
159.902339999999981
21
-124.0769109999999955
0
LINE
8
BLACK
6
CONTINUOUS
10
159.902339999999981
20
-124.0769109999999955
11
159.8698239999999942
21
-124.0282479999999907
0
LINE
8
BLACK
6
CONTINUOUS
10
159.8698239999999942
20
-124.0282479999999907
11
159.8584060000000022
21
-123.9708449999999971
0
LINE
8
BLACK
6
CONTINUOUS
10
159.8584060000000022
20
-123.9708449999999971
11
159.8584060000000022
21
-122.7958449999999999
0
LINE
8
BLACK
6
CONTINUOUS
10
159.8584060000000022
20
-122.7958449999999999
11
159.8698239999999942
21
-122.738441999999992
0
LINE
8
BLACK
6
CONTINUOUS
10
159.8698239999999942
20
-122.738441999999992
11
159.902339999999981
21
-122.6897790000000015
0
LINE
8
BLACK
6
CONTINUOUS
10
159.902339999999981
20
-122.6897790000000015
11
159.9510029999999858
21
-122.6572630000000004
0
LINE
8
BLACK
6
CONTINUOUS
10
159.9510029999999858
20
-122.6572630000000004
11
160.0084059999999795
21
-122.6458449999999942
0
LINE
8
BLACK
6
CONTINUOUS
10
160.0084059999999795
20
-122.6458449999999942
11
160.3084059999999909
21
-122.6458449999999942
0
LINE
8
BLACK
6
CONTINUOUS
10
160.3084059999999909
20
-122.6458449999999942
11
160.3658089999999845
21
-122.6572630000000004
0
LINE
8
BLACK
6
CONTINUOUS
10
168.7414949999999862
20
-123.9261939999999953
11
167.5414949999999976
21
-123.9261939999999953
0
LINE
8
BLACK
6
CONTINUOUS
10
167.5414949999999976
20
-123.9261939999999953
11
167.5414949999999976
21
-123.6561939999999993
0
LINE
8
BLACK
6
CONTINUOUS
10
167.5414949999999976
20
-123.6561939999999993
11
168.7414949999999862
21
-123.6561939999999993
0
LINE
8
BLACK
6
CONTINUOUS
10
168.7414949999999862
20
-123.6561939999999993
11
168.7414949999999862
21
-123.9261939999999953
0
LINE
8
BLACK
6
CONTINUOUS
10
176.9414950000000033
20
-123.9261939999999953
11
175.7414949999999862
21
-123.9261939999999953
0
LINE
8
BLACK
6
CONTINUOUS
10
175.7414949999999862
20
-123.9261939999999953
11
175.7414949999999862
21
-123.6561939999999993
0
LINE
8
BLACK
6
CONTINUOUS
10
175.7414949999999862
20
-123.6561939999999993
11
176.9414950000000033
21
-123.6561939999999993
0
LINE
8
BLACK
6
CONTINUOUS
10
176.9414950000000033
20
-123.6561939999999993
11
176.9414950000000033
21
-123.9261939999999953
0
LINE
8
BLACK
6
CONTINUOUS
10
156.0312049999999999
20
-122.9404339999999962
11
156.1041999999999916
21
-122.9892079999999908
0
LINE
8
BLACK
6
CONTINUOUS
10
156.1041999999999916
20
-122.9892079999999908
11
156.1529740000000004
21
-123.0622029999999967
0
LINE
8
BLACK
6
CONTINUOUS
10
156.1529740000000004
20
-123.0622029999999967
11
156.1701009999999883
21
-123.1483069999999884
0
LINE
8
BLACK
6
CONTINUOUS
10
156.1701009999999883
20
-123.1483069999999884
11
156.1701009999999883
21
-123.5983069999999913
0
LINE
8
BLACK
6
CONTINUOUS
10
156.1701009999999883
20
-123.5983069999999913
11
156.1529740000000004
21
-123.6844109999999972
0
LINE
8
BLACK
6
CONTINUOUS
10
156.1529740000000004
20
-123.6844109999999972
11
156.1041999999999916
21
-123.7574059999999889
0
LINE
8
BLACK
6
CONTINUOUS
10
156.1041999999999916
20
-123.7574059999999889
11
156.0312049999999999
21
-123.8061799999999977
0
LINE
8
BLACK
6
CONTINUOUS
10
156.0312049999999999
20
-123.8061799999999977
11
155.945100999999994
21
-123.8233069999999998
0
LINE
8
BLACK
6
CONTINUOUS
10
155.945100999999994
20
-123.8233069999999998
11
155.445100999999994
21
-123.8233069999999998
0
LINE
8
BLACK
6
CONTINUOUS
10
155.445100999999994
20
-123.8233069999999998
11
155.358996999999988
21
-123.8061799999999977
0
LINE
8
BLACK
6
CONTINUOUS
10
155.358996999999988
20
-123.8061799999999977
11
155.2860019999999963
21
-123.7574059999999889
0
LINE
8
BLACK
6
CONTINUOUS
10
155.2860019999999963
20
-123.7574059999999889
11
155.2372279999999876
21
-123.6844109999999972
0
LINE
8
BLACK
6
CONTINUOUS
10
155.2372279999999876
20
-123.6844109999999972
11
155.2201009999999997
21
-123.5983069999999913
0
LINE
8
BLACK
6
CONTINUOUS
10
155.2201009999999997
20
-123.5983069999999913
11
155.2201009999999997
21
-123.1483069999999884
0
LINE
8
BLACK
6
CONTINUOUS
10
155.2201009999999997
20
-123.1483069999999884
11
155.2372279999999876
21
-123.0622029999999967
0
LINE
8
BLACK
6
CONTINUOUS
10
155.2372279999999876
20
-123.0622029999999967
11
155.2860019999999963
21
-122.9892079999999908
0
LINE
8
BLACK
6
CONTINUOUS
10
155.2860019999999963
20
-122.9892079999999908
11
155.358996999999988
21
-122.9404339999999962
0
LINE
8
BLACK
6
CONTINUOUS
10
155.358996999999988
20
-122.9404339999999962
11
155.445100999999994
21
-122.9233069999999941
0
LINE
8
BLACK
6
CONTINUOUS
10
155.445100999999994
20
-122.9233069999999941
11
155.945100999999994
21
-122.9233069999999941
0
LINE
8
BLACK
6
CONTINUOUS
10
155.945100999999994
20
-122.9233069999999941
11
156.0312049999999999
21
-122.9404339999999962
0
LINE
8
BLACK
6
CONTINUOUS
10
178.7783709999999928
20
-122.6608169999999944
11
178.8513659999999845
21
-122.709590999999989
0
LINE
8
BLACK
6
CONTINUOUS
10
178.8513659999999845
20
-122.709590999999989
11
178.9001399999999933
21
-122.7825859999999949
0
LINE
8
BLACK
6
CONTINUOUS
10
178.9001399999999933
20
-122.7825859999999949
11
178.9172669999999812
21
-122.8686900000000009
0
LINE
8
BLACK
6
CONTINUOUS
10
178.9172669999999812
20
-122.8686900000000009
11
178.9172669999999812
21
-123.3686900000000009
0
LINE
8
BLACK
6
CONTINUOUS
10
178.9172669999999812
20
-123.3686900000000009
11
178.9001399999999933
21
-123.4547939999999926
0
LINE
8
BLACK
6
CONTINUOUS
10
178.9001399999999933
20
-123.4547939999999926
11
178.8513659999999845
21
-123.5277889999999985
0
LINE
8
BLACK
6
CONTINUOUS
10
178.8513659999999845
20
-123.5277889999999985
11
178.7783709999999928
21
-123.5765629999999931
0
LINE
8
BLACK
6
CONTINUOUS
10
178.7783709999999928
20
-123.5765629999999931
11
178.6922669999999869
21
-123.5936899999999952
0
LINE
8
BLACK
6
CONTINUOUS
10
178.6922669999999869
20
-123.5936899999999952
11
178.2422669999999982
21
-123.5936899999999952
0
LINE
8
BLACK
6
CONTINUOUS
10
178.2422669999999982
20
-123.5936899999999952
11
178.1561629999999923
21
-123.5765629999999931
0
LINE
8
BLACK
6
CONTINUOUS
10
178.1561629999999923
20
-123.5765629999999931
11
178.0831680000000006
21
-123.5277889999999985
0
LINE
8
BLACK
6
CONTINUOUS
10
178.0831680000000006
20
-123.5277889999999985
11
178.0343939999999918
21
-123.4547939999999926
0
LINE
8
BLACK
6
CONTINUOUS
10
178.0343939999999918
20
-123.4547939999999926
11
178.0172670000000039
21
-123.3686900000000009
0
LINE
8
BLACK
6
CONTINUOUS
10
178.0172670000000039
20
-123.3686900000000009
11
178.0172670000000039
21
-122.8686900000000009
0
LINE
8
BLACK
6
CONTINUOUS
10
178.0172670000000039
20
-122.8686900000000009
11
178.0343939999999918
21
-122.7825859999999949
0
LINE
8
BLACK
6
CONTINUOUS
10
178.0343939999999918
20
-122.7825859999999949
11
178.0831680000000006
21
-122.709590999999989
0
LINE
8
BLACK
6
CONTINUOUS
10
178.0831680000000006
20
-122.709590999999989
11
178.1561629999999923
21
-122.6608169999999944
0
LINE
8
BLACK
6
CONTINUOUS
10
178.1561629999999923
20
-122.6608169999999944
11
178.2422669999999982
21
-122.6436899999999923
0
LINE
8
BLACK
6
CONTINUOUS
10
178.2422669999999982
20
-122.6436899999999923
11
178.6922669999999869
21
-122.6436899999999923
0
LINE
8
BLACK
6
CONTINUOUS
10
178.6922669999999869
20
-122.6436899999999923
11
178.7783709999999928
21
-122.6608169999999944
0
LINE
8
BLACK
6
CONTINUOUS
10
180.3283710000000042
20
-122.6608169999999944
11
180.4013659999999959
21
-122.709590999999989
0
LINE
8
BLACK
6
CONTINUOUS
10
180.4013659999999959
20
-122.709590999999989
11
180.4501400000000046
21
-122.7825859999999949
0
LINE
8
BLACK
6
CONTINUOUS
10
180.4501400000000046
20
-122.7825859999999949
11
180.4672669999999925
21
-122.8686900000000009
0
LINE
8
BLACK
6
CONTINUOUS
10
180.4672669999999925
20
-122.8686900000000009
11
180.4672669999999925
21
-123.3686900000000009
0
LINE
8
BLACK
6
CONTINUOUS
10
180.4672669999999925
20
-123.3686900000000009
11
180.4501400000000046
21
-123.4547939999999926
0
LINE
8
BLACK
6
CONTINUOUS
10
180.4501400000000046
20
-123.4547939999999926
11
180.4013659999999959
21
-123.5277889999999985
0
LINE
8
BLACK
6
CONTINUOUS
10
180.4013659999999959
20
-123.5277889999999985
11
180.3283710000000042
21
-123.5765629999999931
0
LINE
8
BLACK
6
CONTINUOUS
10
180.3283710000000042
20
-123.5765629999999931
11
180.2422669999999982
21
-123.5936899999999952
0
LINE
8
BLACK
6
CONTINUOUS
10
180.2422669999999982
20
-123.5936899999999952
11
179.7922669999999812
21
-123.5936899999999952
0
LINE
8
BLACK
6
CONTINUOUS
10
179.7922669999999812
20
-123.5936899999999952
11
179.7061630000000036
21
-123.5765629999999931
0
LINE
8
BLACK
6
CONTINUOUS
10
179.7061630000000036
20
-123.5765629999999931
11
179.6331679999999835
21
-123.5277889999999985
0
LINE
8
BLACK
6
CONTINUOUS
10
179.6331679999999835
20
-123.5277889999999985
11
179.5843940000000032
21
-123.4547939999999926
0
LINE
8
BLACK
6
CONTINUOUS
10
179.5843940000000032
20
-123.4547939999999926
11
179.5672669999999869
21
-123.3686900000000009
0
LINE
8
BLACK
6
CONTINUOUS
10
179.5672669999999869
20
-123.3686900000000009
11
179.5672669999999869
21
-122.8686900000000009
0
LINE
8
BLACK
6
CONTINUOUS
10
179.5672669999999869
20
-122.8686900000000009
11
179.5843940000000032
21
-122.7825859999999949
0
LINE
8
BLACK
6
CONTINUOUS
10
179.5843940000000032
20
-122.7825859999999949
11
179.6331679999999835
21
-122.709590999999989
0
LINE
8
BLACK
6
CONTINUOUS
10
179.6331679999999835
20
-122.709590999999989
11
179.7061630000000036
21
-122.6608169999999944
0
LINE
8
BLACK
6
CONTINUOUS
10
179.7061630000000036
20
-122.6608169999999944
11
179.7922669999999812
21
-122.6436899999999923
0
LINE
8
BLACK
6
CONTINUOUS
10
179.7922669999999812
20
-122.6436899999999923
11
180.2422669999999982
21
-122.6436899999999923
0
LINE
8
BLACK
6
CONTINUOUS
10
180.2422669999999982
20
-122.6436899999999923
11
180.3283710000000042
21
-122.6608169999999944
0
LINE
8
BLACK
6
CONTINUOUS
10
152.8765669999999943
20
-123.4945579999999978
11
152.276567
21
-123.4945579999999978
0
LINE
8
BLACK
6
CONTINUOUS
10
152.276567
20
-123.4945579999999978
11
152.276567
21
-122.4945579999999978
0
LINE
8
BLACK
6
CONTINUOUS
10
152.276567
20
-122.4945579999999978
11
152.8765669999999943
21
-122.4945579999999978
0
LINE
8
BLACK
6
CONTINUOUS
10
152.8765669999999943
20
-122.4945579999999978
11
152.8765669999999943
21
-123.4945579999999978
0
LINE
8
BLACK
6
CONTINUOUS
10
154.776567
20
-123.4945579999999978
11
154.1765670000000057
21
-123.4945579999999978
0
LINE
8
BLACK
6
CONTINUOUS
10
154.1765670000000057
20
-123.4945579999999978
11
154.1765670000000057
21
-122.4945579999999978
0
LINE
8
BLACK
6
CONTINUOUS
10
154.1765670000000057
20
-122.4945579999999978
11
154.776567
21
-122.4945579999999978
0
LINE
8
BLACK
6
CONTINUOUS
10
154.776567
20
-122.4945579999999978
11
154.776567
21
-123.4945579999999978
0
LINE
8
BLACK
6
CONTINUOUS
10
168.7414949999999862
20
-123.4261939999999953
11
167.5414949999999976
21
-123.4261939999999953
0
LINE
8
BLACK
6
CONTINUOUS
10
167.5414949999999976
20
-123.4261939999999953
11
167.5414949999999976
21
-123.1561939999999993
0
LINE
8
BLACK
6
CONTINUOUS
10
167.5414949999999976
20
-123.1561939999999993
11
168.7414949999999862
21
-123.1561939999999993
0
LINE
8
BLACK
6
CONTINUOUS
10
168.7414949999999862
20
-123.1561939999999993
11
168.7414949999999862
21
-123.4261939999999953
0
LINE
8
BLACK
6
CONTINUOUS
10
176.9414950000000033
20
-123.4261939999999953
11
175.7414949999999862
21
-123.4261939999999953
0
LINE
8
BLACK
6
CONTINUOUS
10
175.7414949999999862
20
-123.4261939999999953
11
175.7414949999999862
21
-123.1561939999999993
0
LINE
8
BLACK
6
CONTINUOUS
10
175.7414949999999862
20
-123.1561939999999993
11
176.9414950000000033
21
-123.1561939999999993
0
LINE
8
BLACK
6
CONTINUOUS
10
176.9414950000000033
20
-123.1561939999999993
11
176.9414950000000033
21
-123.4261939999999953
0
LINE
8
BLACK
6
CONTINUOUS
10
168.7414949999999862
20
-122.9261939999999953
11
167.5414949999999976
21
-122.9261939999999953
0
LINE
8
BLACK
6
CONTINUOUS
10
167.5414949999999976
20
-122.9261939999999953
11
167.5414949999999976
21
-122.6561939999999993
0
LINE
8
BLACK
6
CONTINUOUS
10
167.5414949999999976
20
-122.6561939999999993
11
168.7414949999999862
21
-122.6561939999999993
0
LINE
8
BLACK
6
CONTINUOUS
10
168.7414949999999862
20
-122.6561939999999993
11
168.7414949999999862
21
-122.9261939999999953
0
LINE
8
BLACK
6
CONTINUOUS
10
176.9414950000000033
20
-122.9261939999999953
11
175.7414949999999862
21
-122.9261939999999953
0
LINE
8
BLACK
6
CONTINUOUS
10
175.7414949999999862
20
-122.9261939999999953
11
175.7414949999999862
21
-122.6561939999999993
0
LINE
8
BLACK
6
CONTINUOUS
10
175.7414949999999862
20
-122.6561939999999993
11
176.9414950000000033
21
-122.6561939999999993
0
LINE
8
BLACK
6
CONTINUOUS
10
176.9414950000000033
20
-122.6561939999999993
11
176.9414950000000033
21
-122.9261939999999953
0
LINE
8
BLACK
6
CONTINUOUS
10
183.8609789999999862
20
-121.9504340000000013
11
183.9258629999999926
21
-121.9937889999999925
0
LINE
8
BLACK
6
CONTINUOUS
10
183.9258629999999926
20
-121.9937889999999925
11
183.9692179999999837
21
-122.0586729999999989
0
LINE
8
BLACK
6
CONTINUOUS
10
183.9692179999999837
20
-122.0586729999999989
11
183.9844420000000014
21
-122.1352100000000007
0
LINE
8
BLACK
6
CONTINUOUS
10
183.9844420000000014
20
-122.1352100000000007
11
183.9844420000000014
21
-122.6852099999999979
0
LINE
8
BLACK
6
CONTINUOUS
10
183.9844420000000014
20
-122.6852099999999979
11
183.9692179999999837
21
-122.7617469999999997
0
LINE
8
BLACK
6
CONTINUOUS
10
183.9692179999999837
20
-122.7617469999999997
11
183.9258629999999926
21
-122.8266309999999919
0
LINE
8
BLACK
6
CONTINUOUS
10
183.9258629999999926
20
-122.8266309999999919
11
183.8609789999999862
21
-122.8699859999999973
0
LINE
8
BLACK
6
CONTINUOUS
10
183.8609789999999862
20
-122.8699859999999973
11
183.7844419999999843
21
-122.8852100000000007
0
LINE
8
BLACK
6
CONTINUOUS
10
183.7844419999999843
20
-122.8852100000000007
11
183.3844419999999786
21
-122.8852100000000007
0
LINE
8
BLACK
6
CONTINUOUS
10
183.3844419999999786
20
-122.8852100000000007
11
183.3079050000000052
21
-122.8699859999999973
0
LINE
8
BLACK
6
CONTINUOUS
10
183.3079050000000052
20
-122.8699859999999973
11
183.2430209999999988
21
-122.8266309999999919
0
LINE
8
BLACK
6
CONTINUOUS
10
183.2430209999999988
20
-122.8266309999999919
11
183.1996659999999792
21
-122.7617469999999997
0
LINE
8
BLACK
6
CONTINUOUS
10
183.1996659999999792
20
-122.7617469999999997
11
183.18444199999999
21
-122.6852099999999979
0
LINE
8
BLACK
6
CONTINUOUS
10
183.18444199999999
20
-122.6852099999999979
11
183.18444199999999
21
-122.1352100000000007
0
LINE
8
BLACK
6
CONTINUOUS
10
183.18444199999999
20
-122.1352100000000007
11
183.1996659999999792
21
-122.0586729999999989
0
LINE
8
BLACK
6
CONTINUOUS
10
183.1996659999999792
20
-122.0586729999999989
11
183.2430209999999988
21
-121.9937889999999925
0
LINE
8
BLACK
6
CONTINUOUS
10
183.2430209999999988
20
-121.9937889999999925
11
183.3079050000000052
21
-121.9504340000000013
0
LINE
8
BLACK
6
CONTINUOUS
10
183.3079050000000052
20
-121.9504340000000013
11
183.3844419999999786
21
-121.9352099999999979
0
LINE
8
BLACK
6
CONTINUOUS
10
183.3844419999999786
20
-121.9352099999999979
11
183.7844419999999843
21
-121.9352099999999979
0
LINE
8
BLACK
6
CONTINUOUS
10
183.7844419999999843
20
-121.9352099999999979
11
183.8609789999999862
21
-121.9504340000000013
0
LINE
8
BLACK
6
CONTINUOUS
10
185.5109789999999919
20
-121.9504340000000013
11
185.5758629999999982
21
-121.9937889999999925
0
LINE
8
BLACK
6
CONTINUOUS
10
185.5758629999999982
20
-121.9937889999999925
11
185.6192179999999894
21
-122.0586729999999989
0
LINE
8
BLACK
6
CONTINUOUS
10
185.6192179999999894
20
-122.0586729999999989
11
185.6344419999999786
21
-122.1352100000000007
0
LINE
8
BLACK
6
CONTINUOUS
10
185.6344419999999786
20
-122.1352100000000007
11
185.6344419999999786
21
-122.6852099999999979
0
LINE
8
BLACK
6
CONTINUOUS
10
185.6344419999999786
20
-122.6852099999999979
11
185.6192179999999894
21
-122.7617469999999997
0
LINE
8
BLACK
6
CONTINUOUS
10
185.6192179999999894
20
-122.7617469999999997
11
185.5758629999999982
21
-122.8266309999999919
0
LINE
8
BLACK
6
CONTINUOUS
10
185.5758629999999982
20
-122.8266309999999919
11
185.5109789999999919
21
-122.8699859999999973
0
LINE
8
BLACK
6
CONTINUOUS
10
185.5109789999999919
20
-122.8699859999999973
11
185.43444199999999
21
-122.8852100000000007
0
LINE
8
BLACK
6
CONTINUOUS
10
185.43444199999999
20
-122.8852100000000007
11
185.0344419999999843
21
-122.8852100000000007
0
LINE
8
BLACK
6
CONTINUOUS
10
185.0344419999999843
20
-122.8852100000000007
11
184.9579049999999825
21
-122.8699859999999973
0
LINE
8
BLACK
6
CONTINUOUS
10
184.9579049999999825
20
-122.8699859999999973
11
184.8930210000000045
21
-122.8266309999999919
0
LINE
8
BLACK
6
CONTINUOUS
10
184.8930210000000045
20
-122.8266309999999919
11
184.8496659999999849
21
-122.7617469999999997
0
LINE
8
BLACK
6
CONTINUOUS
10
184.8496659999999849
20
-122.7617469999999997
11
184.8344419999999957
21
-122.6852099999999979
0
LINE
8
BLACK
6
CONTINUOUS
10
184.8344419999999957
20
-122.6852099999999979
11
184.8344419999999957
21
-122.1352100000000007
0
LINE
8
BLACK
6
CONTINUOUS
10
184.8344419999999957
20
-122.1352100000000007
11
184.8496659999999849
21
-122.0586729999999989
0
LINE
8
BLACK
6
CONTINUOUS
10
184.8496659999999849
20
-122.0586729999999989
11
184.8930210000000045
21
-121.9937889999999925
0
LINE
8
BLACK
6
CONTINUOUS
10
184.8930210000000045
20
-121.9937889999999925
11
184.9579049999999825
21
-121.9504340000000013
0
LINE
8
BLACK
6
CONTINUOUS
10
184.9579049999999825
20
-121.9504340000000013
11
185.0344419999999843
21
-121.9352099999999979
0
LINE
8
BLACK
6
CONTINUOUS
10
185.0344419999999843
20
-121.9352099999999979
11
185.43444199999999
21
-121.9352099999999979
0
LINE
8
BLACK
6
CONTINUOUS
10
185.43444199999999
20
-121.9352099999999979
11
185.5109789999999919
21
-121.9504340000000013
0
LINE
8
BLACK
6
CONTINUOUS
10
186.9055459999999869
20
-121.952337
11
186.9785409999999786
21
-122.0011109999999945
0
LINE
8
BLACK
6
CONTINUOUS
10
186.9785409999999786
20
-122.0011109999999945
11
187.0273149999999873
21
-122.0741060000000004
0
LINE
8
BLACK
6
CONTINUOUS
10
187.0273149999999873
20
-122.0741060000000004
11
187.0444420000000036
21
-122.1602099999999922
0
LINE
8
BLACK
6
CONTINUOUS
10
187.0444420000000036
20
-122.1602099999999922
11
187.0444420000000036
21
-122.6602099999999922
0
LINE
8
BLACK
6
CONTINUOUS
10
187.0444420000000036
20
-122.6602099999999922
11
187.0273149999999873
21
-122.7463139999999981
0
LINE
8
BLACK
6
CONTINUOUS
10
187.0273149999999873
20
-122.7463139999999981
11
186.9785409999999786
21
-122.8193089999999899
0
LINE
8
BLACK
6
CONTINUOUS
10
186.9785409999999786
20
-122.8193089999999899
11
186.9055459999999869
21
-122.8680829999999986
0
LINE
8
BLACK
6
CONTINUOUS
10
186.9055459999999869
20
-122.8680829999999986
11
186.8194419999999809
21
-122.8852100000000007
0
LINE
8
BLACK
6
CONTINUOUS
10
186.8194419999999809
20
-122.8852100000000007
11
186.3694419999999923
21
-122.8852100000000007
0
LINE
8
BLACK
6
CONTINUOUS
10
186.3694419999999923
20
-122.8852100000000007
11
186.2833379999999863
21
-122.8680829999999986
0
LINE
8
BLACK
6
CONTINUOUS
10
186.2833379999999863
20
-122.8680829999999986
11
186.2103429999999946
21
-122.8193089999999899
0
LINE
8
BLACK
6
CONTINUOUS
10
186.2103429999999946
20
-122.8193089999999899
11
186.1615689999999859
21
-122.7463139999999981
0
LINE
8
BLACK
6
CONTINUOUS
10
186.1615689999999859
20
-122.7463139999999981
11
186.144441999999998
21
-122.6602099999999922
0
LINE
8
BLACK
6
CONTINUOUS
10
186.144441999999998
20
-122.6602099999999922
11
186.144441999999998
21
-122.1602099999999922
0
LINE
8
BLACK
6
CONTINUOUS
10
186.144441999999998
20
-122.1602099999999922
11
186.1615689999999859
21
-122.0741060000000004
0
LINE
8
BLACK
6
CONTINUOUS
10
186.1615689999999859
20
-122.0741060000000004
11
186.2103429999999946
21
-122.0011109999999945
0
LINE
8
BLACK
6
CONTINUOUS
10
186.2103429999999946
20
-122.0011109999999945
11
186.2833379999999863
21
-121.952337
0
LINE
8
BLACK
6
CONTINUOUS
10
186.2833379999999863
20
-121.952337
11
186.3694419999999923
21
-121.9352099999999979
0
LINE
8
BLACK
6
CONTINUOUS
10
186.3694419999999923
20
-121.9352099999999979
11
186.8194419999999809
21
-121.9352099999999979
0
LINE
8
BLACK
6
CONTINUOUS
10
186.8194419999999809
20
-121.9352099999999979
11
186.9055459999999869
21
-121.952337
0
LINE
8
BLACK
6
CONTINUOUS
10
188.4555459999999982
20
-121.952337
11
188.5285409999999899
21
-122.0011109999999945
0
LINE
8
BLACK
6
CONTINUOUS
10
188.5285409999999899
20
-122.0011109999999945
11
188.5773149999999987
21
-122.0741060000000004
0
LINE
8
BLACK
6
CONTINUOUS
10
188.5773149999999987
20
-122.0741060000000004
11
188.5944419999999866
21
-122.1602099999999922
0
LINE
8
BLACK
6
CONTINUOUS
10
188.5944419999999866
20
-122.1602099999999922
11
188.5944419999999866
21
-122.6602099999999922
0
LINE
8
BLACK
6
CONTINUOUS
10
188.5944419999999866
20
-122.6602099999999922
11
188.5773149999999987
21
-122.7463139999999981
0
LINE
8
BLACK
6
CONTINUOUS
10
188.5773149999999987
20
-122.7463139999999981
11
188.5285409999999899
21
-122.8193089999999899
0
LINE
8
BLACK
6
CONTINUOUS
10
188.5285409999999899
20
-122.8193089999999899
11
188.4555459999999982
21
-122.8680829999999986
0
LINE
8
BLACK
6
CONTINUOUS
10
188.4555459999999982
20
-122.8680829999999986
11
188.3694419999999923
21
-122.8852100000000007
0
LINE
8
BLACK
6
CONTINUOUS
10
188.3694419999999923
20
-122.8852100000000007
11
187.9194420000000036
21
-122.8852100000000007
0
LINE
8
BLACK
6
CONTINUOUS
10
187.9194420000000036
20
-122.8852100000000007
11
187.8333379999999977
21
-122.8680829999999986
0
LINE
8
BLACK
6
CONTINUOUS
10
187.8333379999999977
20
-122.8680829999999986
11
187.7603429999999776
21
-122.8193089999999899
0
LINE
8
BLACK
6
CONTINUOUS
10
187.7603429999999776
20
-122.8193089999999899
11
187.7115689999999972
21
-122.7463139999999981
0
LINE
8
BLACK
6
CONTINUOUS
10
187.7115689999999972
20
-122.7463139999999981
11
187.6944419999999809
21
-122.6602099999999922
0
LINE
8
BLACK
6
CONTINUOUS
10
187.6944419999999809
20
-122.6602099999999922
11
187.6944419999999809
21
-122.1602099999999922
0
LINE
8
BLACK
6
CONTINUOUS
10
187.6944419999999809
20
-122.1602099999999922
11
187.7115689999999972
21
-122.0741060000000004
0
LINE
8
BLACK
6
CONTINUOUS
10
187.7115689999999972
20
-122.0741060000000004
11
187.7603429999999776
21
-122.0011109999999945
0
LINE
8
BLACK
6
CONTINUOUS
10
187.7603429999999776
20
-122.0011109999999945
11
187.8333379999999977
21
-121.952337
0
LINE
8
BLACK
6
CONTINUOUS
10
187.8333379999999977
20
-121.952337
11
187.9194420000000036
21
-121.9352099999999979
0
LINE
8
BLACK
6
CONTINUOUS
10
187.9194420000000036
20
-121.9352099999999979
11
188.3694419999999923
21
-121.9352099999999979
0
LINE
8
BLACK
6
CONTINUOUS
10
188.3694419999999923
20
-121.9352099999999979
11
188.4555459999999982
21
-121.952337
0
LINE
8
BLACK
6
CONTINUOUS
10
161.8355540000000019
20
-121.7604789999999895
11
161.9004379999999799
21
-121.8038339999999948
0
LINE
8
BLACK
6
CONTINUOUS
10
161.9004379999999799
20
-121.8038339999999948
11
161.9437929999999994
21
-121.8687180000000012
0
LINE
8
BLACK
6
CONTINUOUS
10
161.9437929999999994
20
-121.8687180000000012
11
161.9590169999999887
21
-121.9452549999999889
0
LINE
8
BLACK
6
CONTINUOUS
10
161.9590169999999887
20
-121.9452549999999889
11
161.9590169999999887
21
-122.4952550000000002
0
LINE
8
BLACK
6
CONTINUOUS
10
161.9590169999999887
20
-122.4952550000000002
11
161.9437929999999994
21
-122.5717919999999879
0
LINE
8
BLACK
6
CONTINUOUS
10
161.9437929999999994
20
-122.5717919999999879
11
161.9004379999999799
21
-122.6366759999999942
0
LINE
8
BLACK
6
CONTINUOUS
10
161.9004379999999799
20
-122.6366759999999942
11
161.8355540000000019
21
-122.6800309999999996
0
LINE
8
BLACK
6
CONTINUOUS
10
161.8355540000000019
20
-122.6800309999999996
11
161.7590170000000001
21
-122.6952549999999889
0
LINE
8
BLACK
6
CONTINUOUS
10
161.7590170000000001
20
-122.6952549999999889
11
161.3590169999999944
21
-122.6952549999999889
0
LINE
8
BLACK
6
CONTINUOUS
10
161.3590169999999944
20
-122.6952549999999889
11
161.2824799999999925
21
-122.6800309999999996
0
LINE
8
BLACK
6
CONTINUOUS
10
161.2824799999999925
20
-122.6800309999999996
11
161.2175959999999861
21
-122.6366759999999942
0
LINE
8
BLACK
6
CONTINUOUS
10
161.2175959999999861
20
-122.6366759999999942
11
161.174240999999995
21
-122.5717919999999879
0
LINE
8
BLACK
6
CONTINUOUS
10
161.174240999999995
20
-122.5717919999999879
11
161.1590170000000057
21
-122.4952550000000002
0
LINE
8
BLACK
6
CONTINUOUS
10
161.1590170000000057
20
-122.4952550000000002
11
161.1590170000000057
21
-121.9452549999999889
0
LINE
8
BLACK
6
CONTINUOUS
10
161.1590170000000057
20
-121.9452549999999889
11
161.174240999999995
21
-121.8687180000000012
0
LINE
8
BLACK
6
CONTINUOUS
10
161.174240999999995
20
-121.8687180000000012
11
161.2175959999999861
21
-121.8038339999999948
0
LINE
8
BLACK
6
CONTINUOUS
10
161.2175959999999861
20
-121.8038339999999948
11
161.2824799999999925
21
-121.7604789999999895
0
LINE
8
BLACK
6
CONTINUOUS
10
161.2824799999999925
20
-121.7604789999999895
11
161.3590169999999944
21
-121.7452550000000002
0
LINE
8
BLACK
6
CONTINUOUS
10
161.3590169999999944
20
-121.7452550000000002
11
161.7590170000000001
21
-121.7452550000000002
0
LINE
8
BLACK
6
CONTINUOUS
10
161.7590170000000001
20
-121.7452550000000002
11
161.8355540000000019
21
-121.7604789999999895
0
LINE
8
BLACK
6
CONTINUOUS
10
163.4855539999999792
20
-121.7604789999999895
11
163.5504379999999855
21
-121.8038339999999948
0
LINE
8
BLACK
6
CONTINUOUS
10
163.5504379999999855
20
-121.8038339999999948
11
163.5937930000000051
21
-121.8687180000000012
0
LINE
8
BLACK
6
CONTINUOUS
10
163.5937930000000051
20
-121.8687180000000012
11
163.6090169999999944
21
-121.9452549999999889
0
LINE
8
BLACK
6
CONTINUOUS
10
163.6090169999999944
20
-121.9452549999999889
11
163.6090169999999944
21
-122.4952550000000002
0
LINE
8
BLACK
6
CONTINUOUS
10
163.6090169999999944
20
-122.4952550000000002
11
163.5937930000000051
21
-122.5717919999999879
0
LINE
8
BLACK
6
CONTINUOUS
10
163.5937930000000051
20
-122.5717919999999879
11
163.5504379999999855
21
-122.6366759999999942
0
LINE
8
BLACK
6
CONTINUOUS
10
163.5504379999999855
20
-122.6366759999999942
11
163.4855539999999792
21
-122.6800309999999996
0
LINE
8
BLACK
6
CONTINUOUS
10
163.4855539999999792
20
-122.6800309999999996
11
163.4090170000000057
21
-122.6952549999999889
0
LINE
8
BLACK
6
CONTINUOUS
10
163.4090170000000057
20
-122.6952549999999889
11
163.0090170000000001
21
-122.6952549999999889
0
LINE
8
BLACK
6
CONTINUOUS
10
163.0090170000000001
20
-122.6952549999999889
11
162.9324799999999982
21
-122.6800309999999996
0
LINE
8
BLACK
6
CONTINUOUS
10
162.9324799999999982
20
-122.6800309999999996
11
162.8675959999999918
21
-122.6366759999999942
0
LINE
8
BLACK
6
CONTINUOUS
10
162.8675959999999918
20
-122.6366759999999942
11
162.8242410000000007
21
-122.5717919999999879
0
LINE
8
BLACK
6
CONTINUOUS
10
162.8242410000000007
20
-122.5717919999999879
11
162.809016999999983
21
-122.4952550000000002
0
LINE
8
BLACK
6
CONTINUOUS
10
162.809016999999983
20
-122.4952550000000002
11
162.809016999999983
21
-121.9452549999999889
0
LINE
8
BLACK
6
CONTINUOUS
10
162.809016999999983
20
-121.9452549999999889
11
162.8242410000000007
21
-121.8687180000000012
0
LINE
8
BLACK
6
CONTINUOUS
10
162.8242410000000007
20
-121.8687180000000012
11
162.8675959999999918
21
-121.8038339999999948
0
LINE
8
BLACK
6
CONTINUOUS
10
162.8675959999999918
20
-121.8038339999999948
11
162.9324799999999982
21
-121.7604789999999895
0
LINE
8
BLACK
6
CONTINUOUS
10
162.9324799999999982
20
-121.7604789999999895
11
163.0090170000000001
21
-121.7452550000000002
0
LINE
8
BLACK
6
CONTINUOUS
10
163.0090170000000001
20
-121.7452550000000002
11
163.4090170000000057
21
-121.7452550000000002
0
LINE
8
BLACK
6
CONTINUOUS
10
163.4090170000000057
20
-121.7452550000000002
11
163.4855539999999792
21
-121.7604789999999895
0
LINE
8
BLACK
6
CONTINUOUS
10
164.8801210000000026
20
-121.7623819999999881
11
164.9531159999999943
21
-121.8111559999999969
0
LINE
8
BLACK
6
CONTINUOUS
10
164.9531159999999943
20
-121.8111559999999969
11
165.0018900000000031
21
-121.8841509999999886
0
LINE
8
BLACK
6
CONTINUOUS
10
165.0018900000000031
20
-121.8841509999999886
11
165.019016999999991
21
-121.9702549999999945
0
LINE
8
BLACK
6
CONTINUOUS
10
165.019016999999991
20
-121.9702549999999945
11
165.019016999999991
21
-122.4702549999999945
0
LINE
8
BLACK
6
CONTINUOUS
10
165.019016999999991
20
-122.4702549999999945
11
165.0018900000000031
21
-122.5563590000000005
0
LINE
8
BLACK
6
CONTINUOUS
10
165.0018900000000031
20
-122.5563590000000005
11
164.9531159999999943
21
-122.6293539999999922
0
LINE
8
BLACK
6
CONTINUOUS
10
164.9531159999999943
20
-122.6293539999999922
11
164.8801210000000026
21
-122.678128000000001
0
LINE
8
BLACK
6
CONTINUOUS
10
164.8801210000000026
20
-122.678128000000001
11
164.7940169999999966
21
-122.6952549999999889
0
LINE
8
BLACK
6
CONTINUOUS
10
164.7940169999999966
20
-122.6952549999999889
11
164.3440169999999796
21
-122.6952549999999889
0
LINE
8
BLACK
6
CONTINUOUS
10
164.3440169999999796
20
-122.6952549999999889
11
164.2579130000000021
21
-122.678128000000001
0
LINE
8
BLACK
6
CONTINUOUS
10
164.2579130000000021
20
-122.678128000000001
11
164.1849179999999819
21
-122.6293539999999922
0
LINE
8
BLACK
6
CONTINUOUS
10
164.1849179999999819
20
-122.6293539999999922
11
164.1361440000000016
21
-122.5563590000000005
0
LINE
8
BLACK
6
CONTINUOUS
10
164.1361440000000016
20
-122.5563590000000005
11
164.1190169999999853
21
-122.4702549999999945
0
LINE
8
BLACK
6
CONTINUOUS
10
164.1190169999999853
20
-122.4702549999999945
11
164.1190169999999853
21
-121.9702549999999945
0
LINE
8
BLACK
6
CONTINUOUS
10
164.1190169999999853
20
-121.9702549999999945
11
164.1361440000000016
21
-121.8841509999999886
0
LINE
8
BLACK
6
CONTINUOUS
10
164.1361440000000016
20
-121.8841509999999886
11
164.1849179999999819
21
-121.8111559999999969
0
LINE
8
BLACK
6
CONTINUOUS
10
164.1849179999999819
20
-121.8111559999999969
11
164.2579130000000021
21
-121.7623819999999881
0
LINE
8
BLACK
6
CONTINUOUS
10
164.2579130000000021
20
-121.7623819999999881
11
164.3440169999999796
21
-121.7452550000000002
0
LINE
8
BLACK
6
CONTINUOUS
10
164.3440169999999796
20
-121.7452550000000002
11
164.7940169999999966
21
-121.7452550000000002
0
LINE
8
BLACK
6
CONTINUOUS
10
164.7940169999999966
20
-121.7452550000000002
11
164.8801210000000026
21
-121.7623819999999881
0
LINE
8
BLACK
6
CONTINUOUS
10
166.4301209999999855
20
-121.7623819999999881
11
166.5031160000000057
21
-121.8111559999999969
0
LINE
8
BLACK
6
CONTINUOUS
10
166.5031160000000057
20
-121.8111559999999969
11
166.551889999999986
21
-121.8841509999999886
0
LINE
8
BLACK
6
CONTINUOUS
10
166.551889999999986
20
-121.8841509999999886
11
166.5690170000000023
21
-121.9702549999999945
0
LINE
8
BLACK
6
CONTINUOUS
10
166.5690170000000023
20
-121.9702549999999945
11
166.5690170000000023
21
-122.4702549999999945
0
LINE
8
BLACK
6
CONTINUOUS
10
166.5690170000000023
20
-122.4702549999999945
11
166.551889999999986
21
-122.5563590000000005
0
LINE
8
BLACK
6
CONTINUOUS
10
166.551889999999986
20
-122.5563590000000005
11
166.5031160000000057
21
-122.6293539999999922
0
LINE
8
BLACK
6
CONTINUOUS
10
166.5031160000000057
20
-122.6293539999999922
11
166.4301209999999855
21
-122.678128000000001
0
LINE
8
BLACK
6
CONTINUOUS
10
166.4301209999999855
20
-122.678128000000001
11
166.3440169999999796
21
-122.6952549999999889
0
LINE
8
BLACK
6
CONTINUOUS
10
166.3440169999999796
20
-122.6952549999999889
11
165.894016999999991
21
-122.6952549999999889
0
LINE
8
BLACK
6
CONTINUOUS
10
165.894016999999991
20
-122.6952549999999889
11
165.807912999999985
21
-122.678128000000001
0
LINE
8
BLACK
6
CONTINUOUS
10
165.807912999999985
20
-122.678128000000001
11
165.7349179999999933
21
-122.6293539999999922
0
LINE
8
BLACK
6
CONTINUOUS
10
165.7349179999999933
20
-122.6293539999999922
11
165.6861439999999845
21
-122.5563590000000005
0
LINE
8
BLACK
6
CONTINUOUS
10
165.6861439999999845
20
-122.5563590000000005
11
165.6690169999999966
21
-122.4702549999999945
0
LINE
8
BLACK
6
CONTINUOUS
10
165.6690169999999966
20
-122.4702549999999945
11
165.6690169999999966
21
-121.9702549999999945
0
LINE
8
BLACK
6
CONTINUOUS
10
165.6690169999999966
20
-121.9702549999999945
11
165.6861439999999845
21
-121.8841509999999886
0
LINE
8
BLACK
6
CONTINUOUS
10
165.6861439999999845
20
-121.8841509999999886
11
165.7349179999999933
21
-121.8111559999999969
0
LINE
8
BLACK
6
CONTINUOUS
10
165.7349179999999933
20
-121.8111559999999969
11
165.807912999999985
21
-121.7623819999999881
0
LINE
8
BLACK
6
CONTINUOUS
10
165.807912999999985
20
-121.7623819999999881
11
165.894016999999991
21
-121.7452550000000002
0
LINE
8
BLACK
6
CONTINUOUS
10
165.894016999999991
20
-121.7452550000000002
11
166.3440169999999796
21
-121.7452550000000002
0
LINE
8
BLACK
6
CONTINUOUS
10
166.3440169999999796
20
-121.7452550000000002
11
166.4301209999999855
21
-121.7623819999999881
0
LINE
8
BLACK
6
CONTINUOUS
10
168.7414949999999862
20
-122.4261939999999953
11
167.5414949999999976
21
-122.4261939999999953
0
LINE
8
BLACK
6
CONTINUOUS
10
167.5414949999999976
20
-122.4261939999999953
11
167.5414949999999976
21
-122.1561939999999993
0
LINE
8
BLACK
6
CONTINUOUS
10
167.5414949999999976
20
-122.1561939999999993
11
168.7414949999999862
21
-122.1561939999999993
0
LINE
8
BLACK
6
CONTINUOUS
10
168.7414949999999862
20
-122.1561939999999993
11
168.7414949999999862
21
-122.4261939999999953
0
LINE
8
BLACK
6
CONTINUOUS
10
176.9414950000000033
20
-122.4261939999999953
11
175.7414949999999862
21
-122.4261939999999953
0
LINE
8
BLACK
6
CONTINUOUS
10
175.7414949999999862
20
-122.4261939999999953
11
175.7414949999999862
21
-122.1561939999999993
0
LINE
8
BLACK
6
CONTINUOUS
10
175.7414949999999862
20
-122.1561939999999993
11
176.9414950000000033
21
-122.1561939999999993
0
LINE
8
BLACK
6
CONTINUOUS
10
176.9414950000000033
20
-122.1561939999999993
11
176.9414950000000033
21
-122.4261939999999953
0
LINE
8
BLACK
6
CONTINUOUS
10
203.8511330000000044
20
-122.1988679999999903
11
202.051132999999993
21
-122.1988679999999903
0
LINE
8
BLACK
6
CONTINUOUS
10
202.051132999999993
20
-122.1988679999999903
11
202.051132999999993
21
-120.9988679999999874
0
LINE
8
BLACK
6
CONTINUOUS
10
202.051132999999993
20
-120.9988679999999874
11
203.8511330000000044
21
-120.9988679999999874
0
LINE
8
BLACK
6
CONTINUOUS
10
203.8511330000000044
20
-120.9988679999999874
11
203.8511330000000044
21
-122.1988679999999903
0
LINE
8
BLACK
6
CONTINUOUS
10
211.8511330000000044
20
-122.1988679999999903
11
210.051132999999993
21
-122.1988679999999903
0
LINE
8
BLACK
6
CONTINUOUS
10
210.051132999999993
20
-122.1988679999999903
11
210.051132999999993
21
-120.9988679999999874
0
LINE
8
BLACK
6
CONTINUOUS
10
210.051132999999993
20
-120.9988679999999874
11
211.8511330000000044
21
-120.9988679999999874
0
LINE
8
BLACK
6
CONTINUOUS
10
211.8511330000000044
20
-120.9988679999999874
11
211.8511330000000044
21
-122.1988679999999903
0
LINE
8
BLACK
6
CONTINUOUS
10
178.7783709999999928
20
-121.2008170000000007
11
178.8513659999999845
21
-121.2495909999999952
0
LINE
8
BLACK
6
CONTINUOUS
10
178.8513659999999845
20
-121.2495909999999952
11
178.9001399999999933
21
-121.3225860000000011
0
LINE
8
BLACK
6
CONTINUOUS
10
178.9001399999999933
20
-121.3225860000000011
11
178.9172669999999812
21
-121.4086899999999929
0
LINE
8
BLACK
6
CONTINUOUS
10
178.9172669999999812
20
-121.4086899999999929
11
178.9172669999999812
21
-121.9086899999999929
0
LINE
8
BLACK
6
CONTINUOUS
10
178.9172669999999812
20
-121.9086899999999929
11
178.9001399999999933
21
-121.9947939999999988
0
LINE
8
BLACK
6
CONTINUOUS
10
178.9001399999999933
20
-121.9947939999999988
11
178.8513659999999845
21
-122.0677889999999906
0
LINE
8
BLACK
6
CONTINUOUS
10
178.8513659999999845
20
-122.0677889999999906
11
178.7783709999999928
21
-122.1165629999999993
0
LINE
8
BLACK
6
CONTINUOUS
10
178.7783709999999928
20
-122.1165629999999993
11
178.6922669999999869
21
-122.1336900000000014
0
LINE
8
BLACK
6
CONTINUOUS
10
178.6922669999999869
20
-122.1336900000000014
11
178.2422669999999982
21
-122.1336900000000014
0
LINE
8
BLACK
6
CONTINUOUS
10
178.2422669999999982
20
-122.1336900000000014
11
178.1561629999999923
21
-122.1165629999999993
0
LINE
8
BLACK
6
CONTINUOUS
10
178.1561629999999923
20
-122.1165629999999993
11
178.0831680000000006
21
-122.0677889999999906
0
LINE
8
BLACK
6
CONTINUOUS
10
178.0831680000000006
20
-122.0677889999999906
11
178.0343939999999918
21
-121.9947939999999988
0
LINE
8
BLACK
6
CONTINUOUS
10
178.0343939999999918
20
-121.9947939999999988
11
178.0172670000000039
21
-121.9086899999999929
0
LINE
8
BLACK
6
CONTINUOUS
10
178.0172670000000039
20
-121.9086899999999929
11
178.0172670000000039
21
-121.4086899999999929
0
LINE
8
BLACK
6
CONTINUOUS
10
178.0172670000000039
20
-121.4086899999999929
11
178.0343939999999918
21
-121.3225860000000011
0
LINE
8
BLACK
6
CONTINUOUS
10
178.0343939999999918
20
-121.3225860000000011
11
178.0831680000000006
21
-121.2495909999999952
0
LINE
8
BLACK
6
CONTINUOUS
10
178.0831680000000006
20
-121.2495909999999952
11
178.1561629999999923
21
-121.2008170000000007
0
LINE
8
BLACK
6
CONTINUOUS
10
178.1561629999999923
20
-121.2008170000000007
11
178.2422669999999982
21
-121.1836899999999986
0
LINE
8
BLACK
6
CONTINUOUS
10
178.2422669999999982
20
-121.1836899999999986
11
178.6922669999999869
21
-121.1836899999999986
0
LINE
8
BLACK
6
CONTINUOUS
10
178.6922669999999869
20
-121.1836899999999986
11
178.7783709999999928
21
-121.2008170000000007
0
LINE
8
BLACK
6
CONTINUOUS
10
180.3283710000000042
20
-121.2008170000000007
11
180.4013659999999959
21
-121.2495909999999952
0
LINE
8
BLACK
6
CONTINUOUS
10
180.4013659999999959
20
-121.2495909999999952
11
180.4501400000000046
21
-121.3225860000000011
0
LINE
8
BLACK
6
CONTINUOUS
10
180.4501400000000046
20
-121.3225860000000011
11
180.4672669999999925
21
-121.4086899999999929
0
LINE
8
BLACK
6
CONTINUOUS
10
180.4672669999999925
20
-121.4086899999999929
11
180.4672669999999925
21
-121.9086899999999929
0
LINE
8
BLACK
6
CONTINUOUS
10
180.4672669999999925
20
-121.9086899999999929
11
180.4501400000000046
21
-121.9947939999999988
0
LINE
8
BLACK
6
CONTINUOUS
10
180.4501400000000046
20
-121.9947939999999988
11
180.4013659999999959
21
-122.0677889999999906
0
LINE
8
BLACK
6
CONTINUOUS
10
180.4013659999999959
20
-122.0677889999999906
11
180.3283710000000042
21
-122.1165629999999993
0
LINE
8
BLACK
6
CONTINUOUS
10
180.3283710000000042
20
-122.1165629999999993
11
180.2422669999999982
21
-122.1336900000000014
0
LINE
8
BLACK
6
CONTINUOUS
10
180.2422669999999982
20
-122.1336900000000014
11
179.7922669999999812
21
-122.1336900000000014
0
LINE
8
BLACK
6
CONTINUOUS
10
179.7922669999999812
20
-122.1336900000000014
11
179.7061630000000036
21
-122.1165629999999993
0
LINE
8
BLACK
6
CONTINUOUS
10
179.7061630000000036
20
-122.1165629999999993
11
179.6331679999999835
21
-122.0677889999999906
0
LINE
8
BLACK
6
CONTINUOUS
10
179.6331679999999835
20
-122.0677889999999906
11
179.5843940000000032
21
-121.9947939999999988
0
LINE
8
BLACK
6
CONTINUOUS
10
179.5843940000000032
20
-121.9947939999999988
11
179.5672669999999869
21
-121.9086899999999929
0
LINE
8
BLACK
6
CONTINUOUS
10
179.5672669999999869
20
-121.9086899999999929
11
179.5672669999999869
21
-121.4086899999999929
0
LINE
8
BLACK
6
CONTINUOUS
10
179.5672669999999869
20
-121.4086899999999929
11
179.5843940000000032
21
-121.3225860000000011
0
LINE
8
BLACK
6
CONTINUOUS
10
179.5843940000000032
20
-121.3225860000000011
11
179.6331679999999835
21
-121.2495909999999952
0
LINE
8
BLACK
6
CONTINUOUS
10
179.6331679999999835
20
-121.2495909999999952
11
179.7061630000000036
21
-121.2008170000000007
0
LINE
8
BLACK
6
CONTINUOUS
10
179.7061630000000036
20
-121.2008170000000007
11
179.7922669999999812
21
-121.1836899999999986
0
LINE
8
BLACK
6
CONTINUOUS
10
179.7922669999999812
20
-121.1836899999999986
11
180.2422669999999982
21
-121.1836899999999986
0
LINE
8
BLACK
6
CONTINUOUS
10
180.2422669999999982
20
-121.1836899999999986
11
180.3283710000000042
21
-121.2008170000000007
0
LINE
8
BLACK
6
CONTINUOUS
10
168.7414949999999862
20
-121.9261939999999953
11
167.5414949999999976
21
-121.9261939999999953
0
LINE
8
BLACK
6
CONTINUOUS
10
167.5414949999999976
20
-121.9261939999999953
11
167.5414949999999976
21
-121.6561939999999993
0
LINE
8
BLACK
6
CONTINUOUS
10
167.5414949999999976
20
-121.6561939999999993
11
168.7414949999999862
21
-121.6561939999999993
0
LINE
8
BLACK
6
CONTINUOUS
10
168.7414949999999862
20
-121.6561939999999993
11
168.7414949999999862
21
-121.9261939999999953
0
LINE
8
BLACK
6
CONTINUOUS
10
176.9414950000000033
20
-121.9261939999999953
11
175.7414949999999862
21
-121.9261939999999953
0
LINE
8
BLACK
6
CONTINUOUS
10
175.7414949999999862
20
-121.9261939999999953
11
175.7414949999999862
21
-121.6561939999999993
0
LINE
8
BLACK
6
CONTINUOUS
10
175.7414949999999862
20
-121.6561939999999993
11
176.9414950000000033
21
-121.6561939999999993
0
LINE
8
BLACK
6
CONTINUOUS
10
176.9414950000000033
20
-121.6561939999999993
11
176.9414950000000033
21
-121.9261939999999953
0
LINE
8
BLACK
6
CONTINUOUS
10
158.4191199999999924
20
-121.3458599999999876
11
158.4515629999999931
21
-121.3675369999999987
0
LINE
8
BLACK
6
CONTINUOUS
10
158.4515629999999931
20
-121.3675369999999987
11
158.4732400000000041
21
-121.3999799999999993
0
LINE
8
BLACK
6
CONTINUOUS
10
158.4732400000000041
20
-121.3999799999999993
11
158.4808519999999987
21
-121.4382480000000015
0
LINE
8
BLACK
6
CONTINUOUS
10
158.4808519999999987
20
-121.4382480000000015
11
158.4808519999999987
21
-121.6382479999999902
0
LINE
8
BLACK
6
CONTINUOUS
10
158.4808519999999987
20
-121.6382479999999902
11
158.4732400000000041
21
-121.6765159999999923
0
LINE
8
BLACK
6
CONTINUOUS
10
158.4732400000000041
20
-121.6765159999999923
11
158.4515629999999931
21
-121.708958999999993
0
LINE
8
BLACK
6
CONTINUOUS
10
158.4515629999999931
20
-121.708958999999993
11
158.4191199999999924
21
-121.7306359999999898
0
LINE
8
BLACK
6
CONTINUOUS
10
158.4191199999999924
20
-121.7306359999999898
11
158.3808520000000044
21
-121.7382479999999987
0
LINE
8
BLACK
6
CONTINUOUS
10
158.3808520000000044
20
-121.7382479999999987
11
157.9308519999999874
21
-121.7382479999999987
0
LINE
8
BLACK
6
CONTINUOUS
10
157.9308519999999874
20
-121.7382479999999987
11
157.8925839999999994
21
-121.7306359999999898
0
LINE
8
BLACK
6
CONTINUOUS
10
157.8925839999999994
20
-121.7306359999999898
11
157.8601409999999987
21
-121.708958999999993
0
LINE
8
BLACK
6
CONTINUOUS
10
157.8601409999999987
20
-121.708958999999993
11
157.8384639999999877
21
-121.6765159999999923
0
LINE
8
BLACK
6
CONTINUOUS
10
157.8384639999999877
20
-121.6765159999999923
11
157.830851999999993
21
-121.6382479999999902
0
LINE
8
BLACK
6
CONTINUOUS
10
157.830851999999993
20
-121.6382479999999902
11
157.830851999999993
21
-121.4382480000000015
0
LINE
8
BLACK
6
CONTINUOUS
10
157.830851999999993
20
-121.4382480000000015
11
157.8384639999999877
21
-121.3999799999999993
0
LINE
8
BLACK
6
CONTINUOUS
10
157.8384639999999877
20
-121.3999799999999993
11
157.8601409999999987
21
-121.3675369999999987
0
LINE
8
BLACK
6
CONTINUOUS
10
157.8601409999999987
20
-121.3675369999999987
11
157.8925839999999994
21
-121.3458599999999876
0
LINE
8
BLACK
6
CONTINUOUS
10
157.8925839999999994
20
-121.3458599999999876
11
157.9308519999999874
21
-121.338247999999993
0
LINE
8
BLACK
6
CONTINUOUS
10
157.9308519999999874
20
-121.338247999999993
11
158.3808520000000044
21
-121.338247999999993
0
LINE
8
BLACK
6
CONTINUOUS
10
158.3808520000000044
20
-121.338247999999993
11
158.4191199999999924
21
-121.3458599999999876
0
LINE
8
BLACK
6
CONTINUOUS
10
160.3191199999999981
20
-121.3458599999999876
11
160.3515629999999987
21
-121.3675369999999987
0
LINE
8
BLACK
6
CONTINUOUS
10
160.3515629999999987
20
-121.3675369999999987
11
160.3732399999999814
21
-121.3999799999999993
0
LINE
8
BLACK
6
CONTINUOUS
10
160.3732399999999814
20
-121.3999799999999993
11
160.3808520000000044
21
-121.4382480000000015
0
LINE
8
BLACK
6
CONTINUOUS
10
160.3808520000000044
20
-121.4382480000000015
11
160.3808520000000044
21
-121.6382479999999902
0
LINE
8
BLACK
6
CONTINUOUS
10
160.3808520000000044
20
-121.6382479999999902
11
160.3732399999999814
21
-121.6765159999999923
0
LINE
8
BLACK
6
CONTINUOUS
10
160.3732399999999814
20
-121.6765159999999923
11
160.3515629999999987
21
-121.708958999999993
0
LINE
8
BLACK
6
CONTINUOUS
10
160.3515629999999987
20
-121.708958999999993
11
160.3191199999999981
21
-121.7306359999999898
0
LINE
8
BLACK
6
CONTINUOUS
10
160.3191199999999981
20
-121.7306359999999898
11
160.2808519999999817
21
-121.7382479999999987
0
LINE
8
BLACK
6
CONTINUOUS
10
160.2808519999999817
20
-121.7382479999999987
11
159.830851999999993
21
-121.7382479999999987
0
LINE
8
BLACK
6
CONTINUOUS
10
159.830851999999993
20
-121.7382479999999987
11
159.7925840000000051
21
-121.7306359999999898
0
LINE
8
BLACK
6
CONTINUOUS
10
159.7925840000000051
20
-121.7306359999999898
11
159.7601410000000044
21
-121.708958999999993
0
LINE
8
BLACK
6
CONTINUOUS
10
159.7601410000000044
20
-121.708958999999993
11
159.7384639999999933
21
-121.6765159999999923
0
LINE
8
BLACK
6
CONTINUOUS
10
159.7384639999999933
20
-121.6765159999999923
11
159.7308519999999987
21
-121.6382479999999902
0
LINE
8
BLACK
6
CONTINUOUS
10
159.7308519999999987
20
-121.6382479999999902
11
159.7308519999999987
21
-121.4382480000000015
0
LINE
8
BLACK
6
CONTINUOUS
10
159.7308519999999987
20
-121.4382480000000015
11
159.7384639999999933
21
-121.3999799999999993
0
LINE
8
BLACK
6
CONTINUOUS
10
159.7384639999999933
20
-121.3999799999999993
11
159.7601410000000044
21
-121.3675369999999987
0
LINE
8
BLACK
6
CONTINUOUS
10
159.7601410000000044
20
-121.3675369999999987
11
159.7925840000000051
21
-121.3458599999999876
0
LINE
8
BLACK
6
CONTINUOUS
10
159.7925840000000051
20
-121.3458599999999876
11
159.830851999999993
21
-121.338247999999993
0
LINE
8
BLACK
6
CONTINUOUS
10
159.830851999999993
20
-121.338247999999993
11
160.2808519999999817
21
-121.338247999999993
0
LINE
8
BLACK
6
CONTINUOUS
10
160.2808519999999817
20
-121.338247999999993
11
160.3191199999999981
21
-121.3458599999999876
0
LINE
8
BLACK
6
CONTINUOUS
10
168.7414949999999862
20
-121.4261939999999953
11
167.5414949999999976
21
-121.4261939999999953
0
LINE
8
BLACK
6
CONTINUOUS
10
167.5414949999999976
20
-121.4261939999999953
11
167.5414949999999976
21
-121.1561939999999993
0
LINE
8
BLACK
6
CONTINUOUS
10
167.5414949999999976
20
-121.1561939999999993
11
168.7414949999999862
21
-121.1561939999999993
0
LINE
8
BLACK
6
CONTINUOUS
10
168.7414949999999862
20
-121.1561939999999993
11
168.7414949999999862
21
-121.4261939999999953
0
LINE
8
BLACK
6
CONTINUOUS
10
176.9414950000000033
20
-121.4261939999999953
11
175.7414949999999862
21
-121.4261939999999953
0
LINE
8
BLACK
6
CONTINUOUS
10
175.7414949999999862
20
-121.4261939999999953
11
175.7414949999999862
21
-121.1561939999999993
0
LINE
8
BLACK
6
CONTINUOUS
10
175.7414949999999862
20
-121.1561939999999993
11
176.9414950000000033
21
-121.1561939999999993
0
LINE
8
BLACK
6
CONTINUOUS
10
176.9414950000000033
20
-121.1561939999999993
11
176.9414950000000033
21
-121.4261939999999953
0
LINE
8
BLACK
6
CONTINUOUS
10
152.8765669999999943
20
-121.294557999999995
11
152.276567
21
-121.294557999999995
0
LINE
8
BLACK
6
CONTINUOUS
10
152.276567
20
-121.294557999999995
11
152.276567
21
-120.294557999999995
0
LINE
8
BLACK
6
CONTINUOUS
10
152.276567
20
-120.294557999999995
11
152.8765669999999943
21
-120.294557999999995
0
LINE
8
BLACK
6
CONTINUOUS
10
152.8765669999999943
20
-120.294557999999995
11
152.8765669999999943
21
-121.294557999999995
0
LINE
8
BLACK
6
CONTINUOUS
10
153.826566999999983
20
-121.294557999999995
11
153.2265669999999886
21
-121.294557999999995
0
LINE
8
BLACK
6
CONTINUOUS
10
153.2265669999999886
20
-121.294557999999995
11
153.2265669999999886
21
-120.294557999999995
0
LINE
8
BLACK
6
CONTINUOUS
10
153.2265669999999886
20
-120.294557999999995
11
153.826566999999983
21
-120.294557999999995
0
LINE
8
BLACK
6
CONTINUOUS
10
153.826566999999983
20
-120.294557999999995
11
153.826566999999983
21
-121.294557999999995
0
LINE
8
BLACK
6
CONTINUOUS
10
154.776567
20
-121.294557999999995
11
154.1765670000000057
21
-121.294557999999995
0
LINE
8
BLACK
6
CONTINUOUS
10
154.1765670000000057
20
-121.294557999999995
11
154.1765670000000057
21
-120.294557999999995
0
LINE
8
BLACK
6
CONTINUOUS
10
154.1765670000000057
20
-120.294557999999995
11
154.776567
21
-120.294557999999995
0
LINE
8
BLACK
6
CONTINUOUS
10
154.776567
20
-120.294557999999995
11
154.776567
21
-121.294557999999995
0
LINE
8
BLACK
6
CONTINUOUS
10
158.4191199999999924
20
-120.6958599999999961
11
158.4515629999999931
21
-120.717536999999993
0
LINE
8
BLACK
6
CONTINUOUS
10
158.4515629999999931
20
-120.717536999999993
11
158.4732400000000041
21
-120.7499799999999937
0
LINE
8
BLACK
6
CONTINUOUS
10
158.4732400000000041
20
-120.7499799999999937
11
158.4808519999999987
21
-120.7882479999999958
0
LINE
8
BLACK
6
CONTINUOUS
10
158.4808519999999987
20
-120.7882479999999958
11
158.4808519999999987
21
-120.9882479999999987
0
LINE
8
BLACK
6
CONTINUOUS
10
158.4808519999999987
20
-120.9882479999999987
11
158.4732400000000041
21
-121.0265160000000009
0
LINE
8
BLACK
6
CONTINUOUS
10
158.4732400000000041
20
-121.0265160000000009
11
158.4515629999999931
21
-121.0589590000000015
0
LINE
8
BLACK
6
CONTINUOUS
10
158.4515629999999931
20
-121.0589590000000015
11
158.4191199999999924
21
-121.0806359999999984
0
LINE
8
BLACK
6
CONTINUOUS
10
158.4191199999999924
20
-121.0806359999999984
11
158.3808520000000044
21
-121.088247999999993
0
LINE
8
BLACK
6
CONTINUOUS
10
158.3808520000000044
20
-121.088247999999993
11
157.9308519999999874
21
-121.088247999999993
0
LINE
8
BLACK
6
CONTINUOUS
10
157.9308519999999874
20
-121.088247999999993
11
157.8925839999999994
21
-121.0806359999999984
0
LINE
8
BLACK
6
CONTINUOUS
10
157.8925839999999994
20
-121.0806359999999984
11
157.8601409999999987
21
-121.0589590000000015
0
LINE
8
BLACK
6
CONTINUOUS
10
157.8601409999999987
20
-121.0589590000000015
11
157.8384639999999877
21
-121.0265160000000009
0
LINE
8
BLACK
6
CONTINUOUS
10
157.8384639999999877
20
-121.0265160000000009
11
157.830851999999993
21
-120.9882479999999987
0
LINE
8
BLACK
6
CONTINUOUS
10
157.830851999999993
20
-120.9882479999999987
11
157.830851999999993
21
-120.7882479999999958
0
LINE
8
BLACK
6
CONTINUOUS
10
157.830851999999993
20
-120.7882479999999958
11
157.8384639999999877
21
-120.7499799999999937
0
LINE
8
BLACK
6
CONTINUOUS
10
157.8384639999999877
20
-120.7499799999999937
11
157.8601409999999987
21
-120.717536999999993
0
LINE
8
BLACK
6
CONTINUOUS
10
157.8601409999999987
20
-120.717536999999993
11
157.8925839999999994
21
-120.6958599999999961
0
LINE
8
BLACK
6
CONTINUOUS
10
157.8925839999999994
20
-120.6958599999999961
11
157.9308519999999874
21
-120.6882480000000015
0
LINE
8
BLACK
6
CONTINUOUS
10
157.9308519999999874
20
-120.6882480000000015
11
158.3808520000000044
21
-120.6882480000000015
0
LINE
8
BLACK
6
CONTINUOUS
10
158.3808520000000044
20
-120.6882480000000015
11
158.4191199999999924
21
-120.6958599999999961
0
LINE
8
BLACK
6
CONTINUOUS
10
160.3191199999999981
20
-120.6958599999999961
11
160.3515629999999987
21
-120.717536999999993
0
LINE
8
BLACK
6
CONTINUOUS
10
160.3515629999999987
20
-120.717536999999993
11
160.3732399999999814
21
-120.7499799999999937
0
LINE
8
BLACK
6
CONTINUOUS
10
160.3732399999999814
20
-120.7499799999999937
11
160.3808520000000044
21
-120.7882479999999958
0
LINE
8
BLACK
6
CONTINUOUS
10
160.3808520000000044
20
-120.7882479999999958
11
160.3808520000000044
21
-120.9882479999999987
0
LINE
8
BLACK
6
CONTINUOUS
10
160.3808520000000044
20
-120.9882479999999987
11
160.3732399999999814
21
-121.0265160000000009
0
LINE
8
BLACK
6
CONTINUOUS
10
160.3732399999999814
20
-121.0265160000000009
11
160.3515629999999987
21
-121.0589590000000015
0
LINE
8
BLACK
6
CONTINUOUS
10
160.3515629999999987
20
-121.0589590000000015
11
160.3191199999999981
21
-121.0806359999999984
0
LINE
8
BLACK
6
CONTINUOUS
10
160.3191199999999981
20
-121.0806359999999984
11
160.2808519999999817
21
-121.088247999999993
0
LINE
8
BLACK
6
CONTINUOUS
10
160.2808519999999817
20
-121.088247999999993
11
159.830851999999993
21
-121.088247999999993
0
LINE
8
BLACK
6
CONTINUOUS
10
159.830851999999993
20
-121.088247999999993
11
159.7925840000000051
21
-121.0806359999999984
0
LINE
8
BLACK
6
CONTINUOUS
10
159.7925840000000051
20
-121.0806359999999984
11
159.7601410000000044
21
-121.0589590000000015
0
LINE
8
BLACK
6
CONTINUOUS
10
159.7601410000000044
20
-121.0589590000000015
11
159.7384639999999933
21
-121.0265160000000009
0
LINE
8
BLACK
6
CONTINUOUS
10
159.7384639999999933
20
-121.0265160000000009
11
159.7308519999999987
21
-120.9882479999999987
0
LINE
8
BLACK
6
CONTINUOUS
10
159.7308519999999987
20
-120.9882479999999987
11
159.7308519999999987
21
-120.7882479999999958
0
LINE
8
BLACK
6
CONTINUOUS
10
159.7308519999999987
20
-120.7882479999999958
11
159.7384639999999933
21
-120.7499799999999937
0
LINE
8
BLACK
6
CONTINUOUS
10
159.7384639999999933
20
-120.7499799999999937
11
159.7601410000000044
21
-120.717536999999993
0
LINE
8
BLACK
6
CONTINUOUS
10
159.7601410000000044
20
-120.717536999999993
11
159.7925840000000051
21
-120.6958599999999961
0
LINE
8
BLACK
6
CONTINUOUS
10
159.7925840000000051
20
-120.6958599999999961
11
159.830851999999993
21
-120.6882480000000015
0
LINE
8
BLACK
6
CONTINUOUS
10
159.830851999999993
20
-120.6882480000000015
11
160.2808519999999817
21
-120.6882480000000015
0
LINE
8
BLACK
6
CONTINUOUS
10
160.2808519999999817
20
-120.6882480000000015
11
160.3191199999999981
21
-120.6958599999999961
0
LINE
8
BLACK
6
CONTINUOUS
10
161.9657259999999894
20
-120.1366639999999961
11
162.0306099999999958
21
-120.1800190000000015
0
LINE
8
BLACK
6
CONTINUOUS
10
162.0306099999999958
20
-120.1800190000000015
11
162.073964999999987
21
-120.2449029999999937
0
LINE
8
BLACK
6
CONTINUOUS
10
162.073964999999987
20
-120.2449029999999937
11
162.0891890000000046
21
-120.3214399999999955
0
LINE
8
BLACK
6
CONTINUOUS
10
162.0891890000000046
20
-120.3214399999999955
11
162.0891890000000046
21
-120.8714399999999927
0
LINE
8
BLACK
6
CONTINUOUS
10
162.0891890000000046
20
-120.8714399999999927
11
162.073964999999987
21
-120.9479769999999945
0
LINE
8
BLACK
6
CONTINUOUS
10
162.073964999999987
20
-120.9479769999999945
11
162.0306099999999958
21
-121.0128610000000009
0
LINE
8
BLACK
6
CONTINUOUS
10
162.0306099999999958
20
-121.0128610000000009
11
161.9657259999999894
21
-121.0562159999999921
0
LINE
8
BLACK
6
CONTINUOUS
10
161.9657259999999894
20
-121.0562159999999921
11
161.8891889999999876
21
-121.0714399999999955
0
LINE
8
BLACK
6
CONTINUOUS
10
161.8891889999999876
20
-121.0714399999999955
11
161.4891889999999819
21
-121.0714399999999955
0
LINE
8
BLACK
6
CONTINUOUS
10
161.4891889999999819
20
-121.0714399999999955
11
161.41265199999998
21
-121.0562159999999921
0
LINE
8
BLACK
6
CONTINUOUS
10
161.41265199999998
20
-121.0562159999999921
11
161.3477680000000021
21
-121.0128610000000009
0
LINE
8
BLACK
6
CONTINUOUS
10
161.3477680000000021
20
-121.0128610000000009
11
161.3044129999999825
21
-120.9479769999999945
0
LINE
8
BLACK
6
CONTINUOUS
10
161.3044129999999825
20
-120.9479769999999945
11
161.2891889999999933
21
-120.8714399999999927
0
LINE
8
BLACK
6
CONTINUOUS
10
161.2891889999999933
20
-120.8714399999999927
11
161.2891889999999933
21
-120.3214399999999955
0
LINE
8
BLACK
6
CONTINUOUS
10
161.2891889999999933
20
-120.3214399999999955
11
161.3044129999999825
21
-120.2449029999999937
0
LINE
8
BLACK
6
CONTINUOUS
10
161.3044129999999825
20
-120.2449029999999937
11
161.3477680000000021
21
-120.1800190000000015
0
LINE
8
BLACK
6
CONTINUOUS
10
161.3477680000000021
20
-120.1800190000000015
11
161.41265199999998
21
-120.1366639999999961
0
LINE
8
BLACK
6
CONTINUOUS
10
161.41265199999998
20
-120.1366639999999961
11
161.4891889999999819
21
-120.1214399999999927
0
LINE
8
BLACK
6
CONTINUOUS
10
161.4891889999999819
20
-120.1214399999999927
11
161.8891889999999876
21
-120.1214399999999927
0
LINE
8
BLACK
6
CONTINUOUS
10
161.8891889999999876
20
-120.1214399999999927
11
161.9657259999999894
21
-120.1366639999999961
0
LINE
8
BLACK
6
CONTINUOUS
10
163.6157259999999951
20
-120.1366639999999961
11
163.6806100000000015
21
-120.1800190000000015
0
LINE
8
BLACK
6
CONTINUOUS
10
163.6806100000000015
20
-120.1800190000000015
11
163.7239649999999926
21
-120.2449029999999937
0
LINE
8
BLACK
6
CONTINUOUS
10
163.7239649999999926
20
-120.2449029999999937
11
163.7391889999999819
21
-120.3214399999999955
0
LINE
8
BLACK
6
CONTINUOUS
10
163.7391889999999819
20
-120.3214399999999955
11
163.7391889999999819
21
-120.8714399999999927
0
LINE
8
BLACK
6
CONTINUOUS
10
163.7391889999999819
20
-120.8714399999999927
11
163.7239649999999926
21
-120.9479769999999945
0
LINE
8
BLACK
6
CONTINUOUS
10
163.7239649999999926
20
-120.9479769999999945
11
163.6806100000000015
21
-121.0128610000000009
0
LINE
8
BLACK
6
CONTINUOUS
10
163.6806100000000015
20
-121.0128610000000009
11
163.6157259999999951
21
-121.0562159999999921
0
LINE
8
BLACK
6
CONTINUOUS
10
163.6157259999999951
20
-121.0562159999999921
11
163.5391889999999933
21
-121.0714399999999955
0
LINE
8
BLACK
6
CONTINUOUS
10
163.5391889999999933
20
-121.0714399999999955
11
163.1391889999999876
21
-121.0714399999999955
0
LINE
8
BLACK
6
CONTINUOUS
10
163.1391889999999876
20
-121.0714399999999955
11
163.0626519999999857
21
-121.0562159999999921
0
LINE
8
BLACK
6
CONTINUOUS
10
163.0626519999999857
20
-121.0562159999999921
11
162.9977679999999793
21
-121.0128610000000009
0
LINE
8
BLACK
6
CONTINUOUS
10
162.9977679999999793
20
-121.0128610000000009
11
162.9544129999999882
21
-120.9479769999999945
0
LINE
8
BLACK
6
CONTINUOUS
10
162.9544129999999882
20
-120.9479769999999945
11
162.9391889999999989
21
-120.8714399999999927
0
LINE
8
BLACK
6
CONTINUOUS
10
162.9391889999999989
20
-120.8714399999999927
11
162.9391889999999989
21
-120.3214399999999955
0
LINE
8
BLACK
6
CONTINUOUS
10
162.9391889999999989
20
-120.3214399999999955
11
162.9544129999999882
21
-120.2449029999999937
0
LINE
8
BLACK
6
CONTINUOUS
10
162.9544129999999882
20
-120.2449029999999937
11
162.9977679999999793
21
-120.1800190000000015
0
LINE
8
BLACK
6
CONTINUOUS
10
162.9977679999999793
20
-120.1800190000000015
11
163.0626519999999857
21
-120.1366639999999961
0
LINE
8
BLACK
6
CONTINUOUS
10
163.0626519999999857
20
-120.1366639999999961
11
163.1391889999999876
21
-120.1214399999999927
0
LINE
8
BLACK
6
CONTINUOUS
10
163.1391889999999876
20
-120.1214399999999927
11
163.5391889999999933
21
-120.1214399999999927
0
LINE
8
BLACK
6
CONTINUOUS
10
163.5391889999999933
20
-120.1214399999999927
11
163.6157259999999951
21
-120.1366639999999961
0
LINE
8
BLACK
6
CONTINUOUS
10
183.7646959999999865
20
-120.0754850000000005
11
183.8295799999999929
21
-120.1188399999999916
0
LINE
8
BLACK
6
CONTINUOUS
10
183.8295799999999929
20
-120.1188399999999916
11
183.872934999999984
21
-120.183723999999998
0
LINE
8
BLACK
6
CONTINUOUS
10
183.872934999999984
20
-120.183723999999998
11
183.8881590000000017
21
-120.2602609999999999
0
LINE
8
BLACK
6
CONTINUOUS
10
183.8881590000000017
20
-120.2602609999999999
11
183.8881590000000017
21
-120.810260999999997
0
LINE
8
BLACK
6
CONTINUOUS
10
183.8881590000000017
20
-120.810260999999997
11
183.872934999999984
21
-120.8867979999999989
0
LINE
8
BLACK
6
CONTINUOUS
10
183.872934999999984
20
-120.8867979999999989
11
183.8295799999999929
21
-120.951681999999991
0
LINE
8
BLACK
6
CONTINUOUS
10
183.8295799999999929
20
-120.951681999999991
11
183.7646959999999865
21
-120.9950369999999964
0
LINE
8
BLACK
6
CONTINUOUS
10
183.7646959999999865
20
-120.9950369999999964
11
183.6881589999999846
21
-121.0102609999999999
0
LINE
8
BLACK
6
CONTINUOUS
10
183.6881589999999846
20
-121.0102609999999999
11
183.288158999999979
21
-121.0102609999999999
0
LINE
8
BLACK
6
CONTINUOUS
10
183.288158999999979
20
-121.0102609999999999
11
183.2116220000000055
21
-120.9950369999999964
0
LINE
8
BLACK
6
CONTINUOUS
10
183.2116220000000055
20
-120.9950369999999964
11
183.1467379999999991
21
-120.951681999999991
0
LINE
8
BLACK
6
CONTINUOUS
10
183.1467379999999991
20
-120.951681999999991
11
183.1033829999999796
21
-120.8867979999999989
0
LINE
8
BLACK
6
CONTINUOUS
10
183.1033829999999796
20
-120.8867979999999989
11
183.0881589999999903
21
-120.810260999999997
0
LINE
8
BLACK
6
CONTINUOUS
10
183.0881589999999903
20
-120.810260999999997
11
183.0881589999999903
21
-120.2602609999999999
0
LINE
8
BLACK
6
CONTINUOUS
10
183.0881589999999903
20
-120.2602609999999999
11
183.1033829999999796
21
-120.183723999999998
0
LINE
8
BLACK
6
CONTINUOUS
10
183.1033829999999796
20
-120.183723999999998
11
183.1467379999999991
21
-120.1188399999999916
0
LINE
8
BLACK
6
CONTINUOUS
10
183.1467379999999991
20
-120.1188399999999916
11
183.2116220000000055
21
-120.0754850000000005
0
LINE
8
BLACK
6
CONTINUOUS
10
183.2116220000000055
20
-120.0754850000000005
11
183.288158999999979
21
-120.060260999999997
0
LINE
8
BLACK
6
CONTINUOUS
10
183.288158999999979
20
-120.060260999999997
11
183.6881589999999846
21
-120.060260999999997
0
LINE
8
BLACK
6
CONTINUOUS
10
183.6881589999999846
20
-120.060260999999997
11
183.7646959999999865
21
-120.0754850000000005
0
LINE
8
BLACK
6
CONTINUOUS
10
185.4146959999999922
20
-120.0754850000000005
11
185.4795799999999986
21
-120.1188399999999916
0
LINE
8
BLACK
6
CONTINUOUS
10
185.4795799999999986
20
-120.1188399999999916
11
185.5229349999999897
21
-120.183723999999998
0
LINE
8
BLACK
6
CONTINUOUS
10
185.5229349999999897
20
-120.183723999999998
11
185.538158999999979
21
-120.2602609999999999
0
LINE
8
BLACK
6
CONTINUOUS
10
185.538158999999979
20
-120.2602609999999999
11
185.538158999999979
21
-120.810260999999997
0
LINE
8
BLACK
6
CONTINUOUS
10
185.538158999999979
20
-120.810260999999997
11
185.5229349999999897
21
-120.8867979999999989
0
LINE
8
BLACK
6
CONTINUOUS
10
185.5229349999999897
20
-120.8867979999999989
11
185.4795799999999986
21
-120.951681999999991
0
LINE
8
BLACK
6
CONTINUOUS
10
185.4795799999999986
20
-120.951681999999991
11
185.4146959999999922
21
-120.9950369999999964
0
LINE
8
BLACK
6
CONTINUOUS
10
185.4146959999999922
20
-120.9950369999999964
11
185.3381589999999903
21
-121.0102609999999999
0
LINE
8
BLACK
6
CONTINUOUS
10
185.3381589999999903
20
-121.0102609999999999
11
184.9381589999999846
21
-121.0102609999999999
0
LINE
8
BLACK
6
CONTINUOUS
10
184.9381589999999846
20
-121.0102609999999999
11
184.8616219999999828
21
-120.9950369999999964
0
LINE
8
BLACK
6
CONTINUOUS
10
184.8616219999999828
20
-120.9950369999999964
11
184.7967380000000048
21
-120.951681999999991
0
LINE
8
BLACK
6
CONTINUOUS
10
184.7967380000000048
20
-120.951681999999991
11
184.7533829999999853
21
-120.8867979999999989
0
LINE
8
BLACK
6
CONTINUOUS
10
184.7533829999999853
20
-120.8867979999999989
11
184.738158999999996
21
-120.810260999999997
0
LINE
8
BLACK
6
CONTINUOUS
10
184.738158999999996
20
-120.810260999999997
11
184.738158999999996
21
-120.2602609999999999
0
LINE
8
BLACK
6
CONTINUOUS
10
184.738158999999996
20
-120.2602609999999999
11
184.7533829999999853
21
-120.183723999999998
0
LINE
8
BLACK
6
CONTINUOUS
10
184.7533829999999853
20
-120.183723999999998
11
184.7967380000000048
21
-120.1188399999999916
0
LINE
8
BLACK
6
CONTINUOUS
10
184.7967380000000048
20
-120.1188399999999916
11
184.8616219999999828
21
-120.0754850000000005
0
LINE
8
BLACK
6
CONTINUOUS
10
184.8616219999999828
20
-120.0754850000000005
11
184.9381589999999846
21
-120.060260999999997
0
LINE
8
BLACK
6
CONTINUOUS
10
184.9381589999999846
20
-120.060260999999997
11
185.3381589999999903
21
-120.060260999999997
0
LINE
8
BLACK
6
CONTINUOUS
10
185.3381589999999903
20
-120.060260999999997
11
185.4146959999999922
21
-120.0754850000000005
0
LINE
8
BLACK
6
CONTINUOUS
10
186.8092629999999872
20
-120.0773879999999991
11
186.8822579999999789
21
-120.1261619999999937
0
LINE
8
BLACK
6
CONTINUOUS
10
186.8822579999999789
20
-120.1261619999999937
11
186.9310319999999876
21
-120.1991569999999996
0
LINE
8
BLACK
6
CONTINUOUS
10
186.9310319999999876
20
-120.1991569999999996
11
186.948159000000004
21
-120.2852609999999913
0
LINE
8
BLACK
6
CONTINUOUS
10
186.948159000000004
20
-120.2852609999999913
11
186.948159000000004
21
-120.7852609999999913
0
LINE
8
BLACK
6
CONTINUOUS
10
186.948159000000004
20
-120.7852609999999913
11
186.9310319999999876
21
-120.8713649999999973
0
LINE
8
BLACK
6
CONTINUOUS
10
186.9310319999999876
20
-120.8713649999999973
11
186.8822579999999789
21
-120.944359999999989
0
LINE
8
BLACK
6
CONTINUOUS
10
186.8822579999999789
20
-120.944359999999989
11
186.8092629999999872
21
-120.9931339999999977
0
LINE
8
BLACK
6
CONTINUOUS
10
186.8092629999999872
20
-120.9931339999999977
11
186.7231589999999812
21
-121.0102609999999999
0
LINE
8
BLACK
6
CONTINUOUS
10
186.7231589999999812
20
-121.0102609999999999
11
186.2731589999999926
21
-121.0102609999999999
0
LINE
8
BLACK
6
CONTINUOUS
10
186.2731589999999926
20
-121.0102609999999999
11
186.1870549999999866
21
-120.9931339999999977
0
LINE
8
BLACK
6
CONTINUOUS
10
186.1870549999999866
20
-120.9931339999999977
11
186.1140599999999949
21
-120.944359999999989
0
LINE
8
BLACK
6
CONTINUOUS
10
186.1140599999999949
20
-120.944359999999989
11
186.0652859999999862
21
-120.8713649999999973
0
LINE
8
BLACK
6
CONTINUOUS
10
186.0652859999999862
20
-120.8713649999999973
11
186.0481589999999983
21
-120.7852609999999913
0
LINE
8
BLACK
6
CONTINUOUS
10
186.0481589999999983
20
-120.7852609999999913
11
186.0481589999999983
21
-120.2852609999999913
0
LINE
8
BLACK
6
CONTINUOUS
10
186.0481589999999983
20
-120.2852609999999913
11
186.0652859999999862
21
-120.1991569999999996
0
LINE
8
BLACK
6
CONTINUOUS
10
186.0652859999999862
20
-120.1991569999999996
11
186.1140599999999949
21
-120.1261619999999937
0
LINE
8
BLACK
6
CONTINUOUS
10
186.1140599999999949
20
-120.1261619999999937
11
186.1870549999999866
21
-120.0773879999999991
0
LINE
8
BLACK
6
CONTINUOUS
10
186.1870549999999866
20
-120.0773879999999991
11
186.2731589999999926
21
-120.060260999999997
0
LINE
8
BLACK
6
CONTINUOUS
10
186.2731589999999926
20
-120.060260999999997
11
186.7231589999999812
21
-120.060260999999997
0
LINE
8
BLACK
6
CONTINUOUS
10
186.7231589999999812
20
-120.060260999999997
11
186.8092629999999872
21
-120.0773879999999991
0
LINE
8
BLACK
6
CONTINUOUS
10
188.3592629999999986
20
-120.0773879999999991
11
188.4322579999999903
21
-120.1261619999999937
0
LINE
8
BLACK
6
CONTINUOUS
10
188.4322579999999903
20
-120.1261619999999937
11
188.481031999999999
21
-120.1991569999999996
0
LINE
8
BLACK
6
CONTINUOUS
10
188.481031999999999
20
-120.1991569999999996
11
188.4981589999999869
21
-120.2852609999999913
0
LINE
8
BLACK
6
CONTINUOUS
10
188.4981589999999869
20
-120.2852609999999913
11
188.4981589999999869
21
-120.7852609999999913
0
LINE
8
BLACK
6
CONTINUOUS
10
188.4981589999999869
20
-120.7852609999999913
11
188.481031999999999
21
-120.8713649999999973
0
LINE
8
BLACK
6
CONTINUOUS
10
188.481031999999999
20
-120.8713649999999973
11
188.4322579999999903
21
-120.944359999999989
0
LINE
8
BLACK
6
CONTINUOUS
10
188.4322579999999903
20
-120.944359999999989
11
188.3592629999999986
21
-120.9931339999999977
0
LINE
8
BLACK
6
CONTINUOUS
10
188.3592629999999986
20
-120.9931339999999977
11
188.2731589999999926
21
-121.0102609999999999
0
LINE
8
BLACK
6
CONTINUOUS
10
188.2731589999999926
20
-121.0102609999999999
11
187.823159000000004
21
-121.0102609999999999
0
LINE
8
BLACK
6
CONTINUOUS
10
187.823159000000004
20
-121.0102609999999999
11
187.737054999999998
21
-120.9931339999999977
0
LINE
8
BLACK
6
CONTINUOUS
10
187.737054999999998
20
-120.9931339999999977
11
187.6640599999999779
21
-120.944359999999989
0
LINE
8
BLACK
6
CONTINUOUS
10
187.6640599999999779
20
-120.944359999999989
11
187.6152859999999976
21
-120.8713649999999973
0
LINE
8
BLACK
6
CONTINUOUS
10
187.6152859999999976
20
-120.8713649999999973
11
187.5981589999999812
21
-120.7852609999999913
0
LINE
8
BLACK
6
CONTINUOUS
10
187.5981589999999812
20
-120.7852609999999913
11
187.5981589999999812
21
-120.2852609999999913
0
LINE
8
BLACK
6
CONTINUOUS
10
187.5981589999999812
20
-120.2852609999999913
11
187.6152859999999976
21
-120.1991569999999996
0
LINE
8
BLACK
6
CONTINUOUS
10
187.6152859999999976
20
-120.1991569999999996
11
187.6640599999999779
21
-120.1261619999999937
0
LINE
8
BLACK
6
CONTINUOUS
10
187.6640599999999779
20
-120.1261619999999937
11
187.737054999999998
21
-120.0773879999999991
0
LINE
8
BLACK
6
CONTINUOUS
10
187.737054999999998
20
-120.0773879999999991
11
187.823159000000004
21
-120.060260999999997
0
LINE
8
BLACK
6
CONTINUOUS
10
187.823159000000004
20
-120.060260999999997
11
188.2731589999999926
21
-120.060260999999997
0
LINE
8
BLACK
6
CONTINUOUS
10
188.2731589999999926
20
-120.060260999999997
11
188.3592629999999986
21
-120.0773879999999991
0
LINE
8
BLACK
6
CONTINUOUS
10
156.5423079999999914
20
-120.3790639999999996
11
156.5788059999999859
21
-120.4034499999999923
0
LINE
8
BLACK
6
CONTINUOUS
10
156.5788059999999859
20
-120.4034499999999923
11
156.6031920000000071
21
-120.4399480000000011
0
LINE
8
BLACK
6
CONTINUOUS
10
156.6031920000000071
20
-120.4399480000000011
11
156.6117559999999855
21
-120.4829999999999899
0
LINE
8
BLACK
6
CONTINUOUS
10
156.6117559999999855
20
-120.4829999999999899
11
156.6117559999999855
21
-120.8579999999999899
0
LINE
8
BLACK
6
CONTINUOUS
10
156.6117559999999855
20
-120.8579999999999899
11
156.6031920000000071
21
-120.9010519999999929
0
LINE
8
BLACK
6
CONTINUOUS
10
156.6031920000000071
20
-120.9010519999999929
11
156.5788059999999859
21
-120.9375499999999874
0
LINE
8
BLACK
6
CONTINUOUS
10
156.5788059999999859
20
-120.9375499999999874
11
156.5423079999999914
21
-120.9619359999999944
0
LINE
8
BLACK
6
CONTINUOUS
10
156.5423079999999914
20
-120.9619359999999944
11
156.4992560000000026
21
-120.9705000000000013
0
LINE
8
BLACK
6
CONTINUOUS
10
156.4992560000000026
20
-120.9705000000000013
11
156.2742559999999798
21
-120.9705000000000013
0
LINE
8
BLACK
6
CONTINUOUS
10
156.2742559999999798
20
-120.9705000000000013
11
156.2312039999999911
21
-120.9619359999999944
0
LINE
8
BLACK
6
CONTINUOUS
10
156.2312039999999911
20
-120.9619359999999944
11
156.1947059999999965
21
-120.9375499999999874
0
LINE
8
BLACK
6
CONTINUOUS
10
156.1947059999999965
20
-120.9375499999999874
11
156.1703200000000038
21
-120.9010519999999929
0
LINE
8
BLACK
6
CONTINUOUS
10
156.1703200000000038
20
-120.9010519999999929
11
156.1617559999999969
21
-120.8579999999999899
0
LINE
8
BLACK
6
CONTINUOUS
10
156.1617559999999969
20
-120.8579999999999899
11
156.1617559999999969
21
-120.4829999999999899
0
LINE
8
BLACK
6
CONTINUOUS
10
156.1617559999999969
20
-120.4829999999999899
11
156.1703200000000038
21
-120.4399480000000011
0
LINE
8
BLACK
6
CONTINUOUS
10
156.1703200000000038
20
-120.4399480000000011
11
156.1947059999999965
21
-120.4034499999999923
0
LINE
8
BLACK
6
CONTINUOUS
10
156.1947059999999965
20
-120.4034499999999923
11
156.2312039999999911
21
-120.3790639999999996
0
LINE
8
BLACK
6
CONTINUOUS
10
156.2312039999999911
20
-120.3790639999999996
11
156.2742559999999798
21
-120.3704999999999927
0
LINE
8
BLACK
6
CONTINUOUS
10
156.2742559999999798
20
-120.3704999999999927
11
156.4992560000000026
21
-120.3704999999999927
0
LINE
8
BLACK
6
CONTINUOUS
10
156.4992560000000026
20
-120.3704999999999927
11
156.5423079999999914
21
-120.3790639999999996
0
LINE
8
BLACK
6
CONTINUOUS
10
165.0728929999999934
20
-120.0310259999999971
11
165.1458879999999851
21
-120.0797999999999917
0
LINE
8
BLACK
6
CONTINUOUS
10
165.1458879999999851
20
-120.0797999999999917
11
165.1946619999999939
21
-120.1527949999999976
0
LINE
8
BLACK
6
CONTINUOUS
10
165.1946619999999939
20
-120.1527949999999976
11
165.2117889999999818
21
-120.2388989999999893
0
LINE
8
BLACK
6
CONTINUOUS
10
165.2117889999999818
20
-120.2388989999999893
11
165.2117889999999818
21
-120.7388989999999893
0
LINE
8
BLACK
6
CONTINUOUS
10
165.2117889999999818
20
-120.7388989999999893
11
165.1946619999999939
21
-120.8250029999999953
0
LINE
8
BLACK
6
CONTINUOUS
10
165.1946619999999939
20
-120.8250029999999953
11
165.1458879999999851
21
-120.8979980000000012
0
LINE
8
BLACK
6
CONTINUOUS
10
165.1458879999999851
20
-120.8979980000000012
11
165.0728929999999934
21
-120.9467719999999957
0
LINE
8
BLACK
6
CONTINUOUS
10
165.0728929999999934
20
-120.9467719999999957
11
164.9867889999999875
21
-120.9638989999999978
0
LINE
8
BLACK
6
CONTINUOUS
10
164.9867889999999875
20
-120.9638989999999978
11
164.5367889999999989
21
-120.9638989999999978
0
LINE
8
BLACK
6
CONTINUOUS
10
164.5367889999999989
20
-120.9638989999999978
11
164.4506849999999929
21
-120.9467719999999957
0
LINE
8
BLACK
6
CONTINUOUS
10
164.4506849999999929
20
-120.9467719999999957
11
164.3776900000000012
21
-120.8979980000000012
0
LINE
8
BLACK
6
CONTINUOUS
10
164.3776900000000012
20
-120.8979980000000012
11
164.3289159999999924
21
-120.8250029999999953
0
LINE
8
BLACK
6
CONTINUOUS
10
164.3289159999999924
20
-120.8250029999999953
11
164.3117890000000045
21
-120.7388989999999893
0
LINE
8
BLACK
6
CONTINUOUS
10
164.3117890000000045
20
-120.7388989999999893
11
164.3117890000000045
21
-120.2388989999999893
0
LINE
8
BLACK
6
CONTINUOUS
10
164.3117890000000045
20
-120.2388989999999893
11
164.3289159999999924
21
-120.1527949999999976
0
LINE
8
BLACK
6
CONTINUOUS
10
164.3289159999999924
20
-120.1527949999999976
11
164.3776900000000012
21
-120.0797999999999917
0
LINE
8
BLACK
6
CONTINUOUS
10
164.3776900000000012
20
-120.0797999999999917
11
164.4506849999999929
21
-120.0310259999999971
0
LINE
8
BLACK
6
CONTINUOUS
10
164.4506849999999929
20
-120.0310259999999971
11
164.5367889999999989
21
-120.013898999999995
0
LINE
8
BLACK
6
CONTINUOUS
10
164.5367889999999989
20
-120.013898999999995
11
164.9867889999999875
21
-120.013898999999995
0
LINE
8
BLACK
6
CONTINUOUS
10
164.9867889999999875
20
-120.013898999999995
11
165.0728929999999934
21
-120.0310259999999971
0
LINE
8
BLACK
6
CONTINUOUS
10
166.6228930000000048
20
-120.0310259999999971
11
166.6958879999999965
21
-120.0797999999999917
0
LINE
8
BLACK
6
CONTINUOUS
10
166.6958879999999965
20
-120.0797999999999917
11
166.7446620000000053
21
-120.1527949999999976
0
LINE
8
BLACK
6
CONTINUOUS
10
166.7446620000000053
20
-120.1527949999999976
11
166.7617889999999932
21
-120.2388989999999893
0
LINE
8
BLACK
6
CONTINUOUS
10
166.7617889999999932
20
-120.2388989999999893
11
166.7617889999999932
21
-120.7388989999999893
0
LINE
8
BLACK
6
CONTINUOUS
10
166.7617889999999932
20
-120.7388989999999893
11
166.7446620000000053
21
-120.8250029999999953
0
LINE
8
BLACK
6
CONTINUOUS
10
166.7446620000000053
20
-120.8250029999999953
11
166.6958879999999965
21
-120.8979980000000012
0
LINE
8
BLACK
6
CONTINUOUS
10
166.6958879999999965
20
-120.8979980000000012
11
166.6228930000000048
21
-120.9467719999999957
0
LINE
8
BLACK
6
CONTINUOUS
10
166.6228930000000048
20
-120.9467719999999957
11
166.5367889999999989
21
-120.9638989999999978
0
LINE
8
BLACK
6
CONTINUOUS
10
166.5367889999999989
20
-120.9638989999999978
11
166.0867889999999818
21
-120.9638989999999978
0
LINE
8
BLACK
6
CONTINUOUS
10
166.0867889999999818
20
-120.9638989999999978
11
166.0006850000000043
21
-120.9467719999999957
0
LINE
8
BLACK
6
CONTINUOUS
10
166.0006850000000043
20
-120.9467719999999957
11
165.9276899999999841
21
-120.8979980000000012
0
LINE
8
BLACK
6
CONTINUOUS
10
165.9276899999999841
20
-120.8979980000000012
11
165.8789160000000038
21
-120.8250029999999953
0
LINE
8
BLACK
6
CONTINUOUS
10
165.8789160000000038
20
-120.8250029999999953
11
165.8617889999999875
21
-120.7388989999999893
0
LINE
8
BLACK
6
CONTINUOUS
10
165.8617889999999875
20
-120.7388989999999893
11
165.8617889999999875
21
-120.2388989999999893
0
LINE
8
BLACK
6
CONTINUOUS
10
165.8617889999999875
20
-120.2388989999999893
11
165.8789160000000038
21
-120.1527949999999976
0
LINE
8
BLACK
6
CONTINUOUS
10
165.8789160000000038
20
-120.1527949999999976
11
165.9276899999999841
21
-120.0797999999999917
0
LINE
8
BLACK
6
CONTINUOUS
10
165.9276899999999841
20
-120.0797999999999917
11
166.0006850000000043
21
-120.0310259999999971
0
LINE
8
BLACK
6
CONTINUOUS
10
166.0006850000000043
20
-120.0310259999999971
11
166.0867889999999818
21
-120.013898999999995
0
LINE
8
BLACK
6
CONTINUOUS
10
166.0867889999999818
20
-120.013898999999995
11
166.5367889999999989
21
-120.013898999999995
0
LINE
8
BLACK
6
CONTINUOUS
10
166.5367889999999989
20
-120.013898999999995
11
166.6228930000000048
21
-120.0310259999999971
0
LINE
8
BLACK
6
CONTINUOUS
10
168.7414949999999862
20
-120.9261939999999953
11
167.5414949999999976
21
-120.9261939999999953
0
LINE
8
BLACK
6
CONTINUOUS
10
167.5414949999999976
20
-120.9261939999999953
11
167.5414949999999976
21
-120.6561939999999993
0
LINE
8
BLACK
6
CONTINUOUS
10
167.5414949999999976
20
-120.6561939999999993
11
168.7414949999999862
21
-120.6561939999999993
0
LINE
8
BLACK
6
CONTINUOUS
10
168.7414949999999862
20
-120.6561939999999993
11
168.7414949999999862
21
-120.9261939999999953
0
LINE
8
BLACK
6
CONTINUOUS
10
176.9414950000000033
20
-120.9261939999999953
11
175.7414949999999862
21
-120.9261939999999953
0
LINE
8
BLACK
6
CONTINUOUS
10
175.7414949999999862
20
-120.9261939999999953
11
175.7414949999999862
21
-120.6561939999999993
0
LINE
8
BLACK
6
CONTINUOUS
10
175.7414949999999862
20
-120.6561939999999993
11
176.9414950000000033
21
-120.6561939999999993
0
LINE
8
BLACK
6
CONTINUOUS
10
176.9414950000000033
20
-120.6561939999999993
11
176.9414950000000033
21
-120.9261939999999953
0
LINE
8
BLACK
6
CONTINUOUS
10
146.9577989999999943
20
-120.7488679999999874
11
145.7577990000000057
21
-120.7488679999999874
0
LINE
8
BLACK
6
CONTINUOUS
10
145.7577990000000057
20
-120.7488679999999874
11
145.7577990000000057
21
-118.9488679999999903
0
LINE
8
BLACK
6
CONTINUOUS
10
145.7577990000000057
20
-118.9488679999999903
11
146.9577989999999943
21
-118.9488679999999903
0
LINE
8
BLACK
6
CONTINUOUS
10
146.9577989999999943
20
-118.9488679999999903
11
146.9577989999999943
21
-120.7488679999999874
0
LINE
8
BLACK
6
CONTINUOUS
10
151.4577989999999943
20
-120.7488679999999874
11
150.2577990000000057
21
-120.7488679999999874
0
LINE
8
BLACK
6
CONTINUOUS
10
150.2577990000000057
20
-120.7488679999999874
11
150.2577990000000057
21
-118.9488679999999903
0
LINE
8
BLACK
6
CONTINUOUS
10
150.2577990000000057
20
-118.9488679999999903
11
151.4577989999999943
21
-118.9488679999999903
0
LINE
8
BLACK
6
CONTINUOUS
10
151.4577989999999943
20
-118.9488679999999903
11
151.4577989999999943
21
-120.7488679999999874
0
LINE
8
BLACK
6
CONTINUOUS
10
158.4191199999999924
20
-120.0458599999999905
11
158.4515629999999931
21
-120.0675370000000015
0
LINE
8
BLACK
6
CONTINUOUS
10
158.4515629999999931
20
-120.0675370000000015
11
158.4732400000000041
21
-120.099979999999988
0
LINE
8
BLACK
6
CONTINUOUS
10
158.4732400000000041
20
-120.099979999999988
11
158.4808519999999987
21
-120.1382479999999902
0
LINE
8
BLACK
6
CONTINUOUS
10
158.4808519999999987
20
-120.1382479999999902
11
158.4808519999999987
21
-120.338247999999993
0
LINE
8
BLACK
6
CONTINUOUS
10
158.4808519999999987
20
-120.338247999999993
11
158.4732400000000041
21
-120.3765159999999952
0
LINE
8
BLACK
6
CONTINUOUS
10
158.4732400000000041
20
-120.3765159999999952
11
158.4515629999999931
21
-120.4089589999999959
0
LINE
8
BLACK
6
CONTINUOUS
10
158.4515629999999931
20
-120.4089589999999959
11
158.4191199999999924
21
-120.4306359999999927
0
LINE
8
BLACK
6
CONTINUOUS
10
158.4191199999999924
20
-120.4306359999999927
11
158.3808520000000044
21
-120.4382480000000015
0
LINE
8
BLACK
6
CONTINUOUS
10
158.3808520000000044
20
-120.4382480000000015
11
157.9308519999999874
21
-120.4382480000000015
0
LINE
8
BLACK
6
CONTINUOUS
10
157.9308519999999874
20
-120.4382480000000015
11
157.8925839999999994
21
-120.4306359999999927
0
LINE
8
BLACK
6
CONTINUOUS
10
157.8925839999999994
20
-120.4306359999999927
11
157.8601409999999987
21
-120.4089589999999959
0
LINE
8
BLACK
6
CONTINUOUS
10
157.8601409999999987
20
-120.4089589999999959
11
157.8384639999999877
21
-120.3765159999999952
0
LINE
8
BLACK
6
CONTINUOUS
10
157.8384639999999877
20
-120.3765159999999952
11
157.830851999999993
21
-120.338247999999993
0
LINE
8
BLACK
6
CONTINUOUS
10
157.830851999999993
20
-120.338247999999993
11
157.830851999999993
21
-120.1382479999999902
0
LINE
8
BLACK
6
CONTINUOUS
10
157.830851999999993
20
-120.1382479999999902
11
157.8384639999999877
21
-120.099979999999988
0
LINE
8
BLACK
6
CONTINUOUS
10
157.8384639999999877
20
-120.099979999999988
11
157.8601409999999987
21
-120.0675370000000015
0
LINE
8
BLACK
6
CONTINUOUS
10
157.8601409999999987
20
-120.0675370000000015
11
157.8925839999999994
21
-120.0458599999999905
0
LINE
8
BLACK
6
CONTINUOUS
10
157.8925839999999994
20
-120.0458599999999905
11
157.9308519999999874
21
-120.0382479999999958
0
LINE
8
BLACK
6
CONTINUOUS
10
157.9308519999999874
20
-120.0382479999999958
11
158.3808520000000044
21
-120.0382479999999958
0
LINE
8
BLACK
6
CONTINUOUS
10
158.3808520000000044
20
-120.0382479999999958
11
158.4191199999999924
21
-120.0458599999999905
0
LINE
8
BLACK
6
CONTINUOUS
10
160.3191199999999981
20
-120.0458599999999905
11
160.3515629999999987
21
-120.0675370000000015
0
LINE
8
BLACK
6
CONTINUOUS
10
160.3515629999999987
20
-120.0675370000000015
11
160.3732399999999814
21
-120.099979999999988
0
LINE
8
BLACK
6
CONTINUOUS
10
160.3732399999999814
20
-120.099979999999988
11
160.3808520000000044
21
-120.1382479999999902
0
LINE
8
BLACK
6
CONTINUOUS
10
160.3808520000000044
20
-120.1382479999999902
11
160.3808520000000044
21
-120.338247999999993
0
LINE
8
BLACK
6
CONTINUOUS
10
160.3808520000000044
20
-120.338247999999993
11
160.3732399999999814
21
-120.3765159999999952
0
LINE
8
BLACK
6
CONTINUOUS
10
160.3732399999999814
20
-120.3765159999999952
11
160.3515629999999987
21
-120.4089589999999959
0
LINE
8
BLACK
6
CONTINUOUS
10
160.3515629999999987
20
-120.4089589999999959
11
160.3191199999999981
21
-120.4306359999999927
0
LINE
8
BLACK
6
CONTINUOUS
10
160.3191199999999981
20
-120.4306359999999927
11
160.2808519999999817
21
-120.4382480000000015
0
LINE
8
BLACK
6
CONTINUOUS
10
160.2808519999999817
20
-120.4382480000000015
11
159.830851999999993
21
-120.4382480000000015
0
LINE
8
BLACK
6
CONTINUOUS
10
159.830851999999993
20
-120.4382480000000015
11
159.7925840000000051
21
-120.4306359999999927
0
LINE
8
BLACK
6
CONTINUOUS
10
159.7925840000000051
20
-120.4306359999999927
11
159.7601410000000044
21
-120.4089589999999959
0
LINE
8
BLACK
6
CONTINUOUS
10
159.7601410000000044
20
-120.4089589999999959
11
159.7384639999999933
21
-120.3765159999999952
0
LINE
8
BLACK
6
CONTINUOUS
10
159.7384639999999933
20
-120.3765159999999952
11
159.7308519999999987
21
-120.338247999999993
0
LINE
8
BLACK
6
CONTINUOUS
10
159.7308519999999987
20
-120.338247999999993
11
159.7308519999999987
21
-120.1382479999999902
0
LINE
8
BLACK
6
CONTINUOUS
10
159.7308519999999987
20
-120.1382479999999902
11
159.7384639999999933
21
-120.099979999999988
0
LINE
8
BLACK
6
CONTINUOUS
10
159.7384639999999933
20
-120.099979999999988
11
159.7601410000000044
21
-120.0675370000000015
0
LINE
8
BLACK
6
CONTINUOUS
10
159.7601410000000044
20
-120.0675370000000015
11
159.7925840000000051
21
-120.0458599999999905
0
LINE
8
BLACK
6
CONTINUOUS
10
159.7925840000000051
20
-120.0458599999999905
11
159.830851999999993
21
-120.0382479999999958
0
LINE
8
BLACK
6
CONTINUOUS
10
159.830851999999993
20
-120.0382479999999958
11
160.2808519999999817
21
-120.0382479999999958
0
LINE
8
BLACK
6
CONTINUOUS
10
160.2808519999999817
20
-120.0382479999999958
11
160.3191199999999981
21
-120.0458599999999905
0
LINE
8
BLACK
6
CONTINUOUS
10
168.7414949999999862
20
-120.4261939999999953
11
167.5414949999999976
21
-120.4261939999999953
0
LINE
8
BLACK
6
CONTINUOUS
10
167.5414949999999976
20
-120.4261939999999953
11
167.5414949999999976
21
-120.1561939999999993
0
LINE
8
BLACK
6
CONTINUOUS
10
167.5414949999999976
20
-120.1561939999999993
11
168.7414949999999862
21
-120.1561939999999993
0
LINE
8
BLACK
6
CONTINUOUS
10
168.7414949999999862
20
-120.1561939999999993
11
168.7414949999999862
21
-120.4261939999999953
0
LINE
8
BLACK
6
CONTINUOUS
10
176.9414950000000033
20
-120.4261939999999953
11
175.7414949999999862
21
-120.4261939999999953
0
LINE
8
BLACK
6
CONTINUOUS
10
175.7414949999999862
20
-120.4261939999999953
11
175.7414949999999862
21
-120.1561939999999993
0
LINE
8
BLACK
6
CONTINUOUS
10
175.7414949999999862
20
-120.1561939999999993
11
176.9414950000000033
21
-120.1561939999999993
0
LINE
8
BLACK
6
CONTINUOUS
10
176.9414950000000033
20
-120.1561939999999993
11
176.9414950000000033
21
-120.4261939999999953
0
LINE
8
BLACK
6
CONTINUOUS
10
168.7414949999999862
20
-119.9261939999999953
11
167.5414949999999976
21
-119.9261939999999953
0
LINE
8
BLACK
6
CONTINUOUS
10
167.5414949999999976
20
-119.9261939999999953
11
167.5414949999999976
21
-119.6561939999999993
0
LINE
8
BLACK
6
CONTINUOUS
10
167.5414949999999976
20
-119.6561939999999993
11
168.7414949999999862
21
-119.6561939999999993
0
LINE
8
BLACK
6
CONTINUOUS
10
168.7414949999999862
20
-119.6561939999999993
11
168.7414949999999862
21
-119.9261939999999953
0
LINE
8
BLACK
6
CONTINUOUS
10
176.9414950000000033
20
-119.9261939999999953
11
175.7414949999999862
21
-119.9261939999999953
0
LINE
8
BLACK
6
CONTINUOUS
10
175.7414949999999862
20
-119.9261939999999953
11
175.7414949999999862
21
-119.6561939999999993
0
LINE
8
BLACK
6
CONTINUOUS
10
175.7414949999999862
20
-119.6561939999999993
11
176.9414950000000033
21
-119.6561939999999993
0
LINE
8
BLACK
6
CONTINUOUS
10
176.9414950000000033
20
-119.6561939999999993
11
176.9414950000000033
21
-119.9261939999999953
0
LINE
8
BLACK
6
CONTINUOUS
10
153.4423909999999864
20
-118.7308629999999994
11
153.5153860000000066
21
-118.7796369999999939
0
LINE
8
BLACK
6
CONTINUOUS
10
153.5153860000000066
20
-118.7796369999999939
11
153.5641599999999869
21
-118.8526319999999998
0
LINE
8
BLACK
6
CONTINUOUS
10
153.5641599999999869
20
-118.8526319999999998
11
153.5812870000000032
21
-118.9387359999999916
0
LINE
8
BLACK
6
CONTINUOUS
10
153.5812870000000032
20
-118.9387359999999916
11
153.5812870000000032
21
-119.4387359999999916
0
LINE
8
BLACK
6
CONTINUOUS
10
153.5812870000000032
20
-119.4387359999999916
11
153.5641599999999869
21
-119.5248399999999975
0
LINE
8
BLACK
6
CONTINUOUS
10
153.5641599999999869
20
-119.5248399999999975
11
153.5153860000000066
21
-119.5978349999999892
0
LINE
8
BLACK
6
CONTINUOUS
10
153.5153860000000066
20
-119.5978349999999892
11
153.4423909999999864
21
-119.646608999999998
0
LINE
8
BLACK
6
CONTINUOUS
10
153.4423909999999864
20
-119.646608999999998
11
153.3562869999999805
21
-119.6637360000000001
0
LINE
8
BLACK
6
CONTINUOUS
10
153.3562869999999805
20
-119.6637360000000001
11
152.9062869999999918
21
-119.6637360000000001
0
LINE
8
BLACK
6
CONTINUOUS
10
152.9062869999999918
20
-119.6637360000000001
11
152.8201829999999859
21
-119.646608999999998
0
LINE
8
BLACK
6
CONTINUOUS
10
152.8201829999999859
20
-119.646608999999998
11
152.7471879999999942
21
-119.5978349999999892
0
LINE
8
BLACK
6
CONTINUOUS
10
152.7471879999999942
20
-119.5978349999999892
11
152.6984139999999854
21
-119.5248399999999975
0
LINE
8
BLACK
6
CONTINUOUS
10
152.6984139999999854
20
-119.5248399999999975
11
152.6812869999999975
21
-119.4387359999999916
0
LINE
8
BLACK
6
CONTINUOUS
10
152.6812869999999975
20
-119.4387359999999916
11
152.6812869999999975
21
-118.9387359999999916
0
LINE
8
BLACK
6
CONTINUOUS
10
152.6812869999999975
20
-118.9387359999999916
11
152.6984139999999854
21
-118.8526319999999998
0
LINE
8
BLACK
6
CONTINUOUS
10
152.6984139999999854
20
-118.8526319999999998
11
152.7471879999999942
21
-118.7796369999999939
0
LINE
8
BLACK
6
CONTINUOUS
10
152.7471879999999942
20
-118.7796369999999939
11
152.8201829999999859
21
-118.7308629999999994
0
LINE
8
BLACK
6
CONTINUOUS
10
152.8201829999999859
20
-118.7308629999999994
11
152.9062869999999918
21
-118.7137359999999973
0
LINE
8
BLACK
6
CONTINUOUS
10
152.9062869999999918
20
-118.7137359999999973
11
153.3562869999999805
21
-118.7137359999999973
0
LINE
8
BLACK
6
CONTINUOUS
10
153.3562869999999805
20
-118.7137359999999973
11
153.4423909999999864
21
-118.7308629999999994
0
LINE
8
BLACK
6
CONTINUOUS
10
154.9923909999999978
20
-118.7308629999999994
11
155.0653859999999895
21
-118.7796369999999939
0
LINE
8
BLACK
6
CONTINUOUS
10
155.0653859999999895
20
-118.7796369999999939
11
155.1141599999999983
21
-118.8526319999999998
0
LINE
8
BLACK
6
CONTINUOUS
10
155.1141599999999983
20
-118.8526319999999998
11
155.1312869999999862
21
-118.9387359999999916
0
LINE
8
BLACK
6
CONTINUOUS
10
155.1312869999999862
20
-118.9387359999999916
11
155.1312869999999862
21
-119.4387359999999916
0
LINE
8
BLACK
6
CONTINUOUS
10
155.1312869999999862
20
-119.4387359999999916
11
155.1141599999999983
21
-119.5248399999999975
0
LINE
8
BLACK
6
CONTINUOUS
10
155.1141599999999983
20
-119.5248399999999975
11
155.0653859999999895
21
-119.5978349999999892
0
LINE
8
BLACK
6
CONTINUOUS
10
155.0653859999999895
20
-119.5978349999999892
11
154.9923909999999978
21
-119.646608999999998
0
LINE
8
BLACK
6
CONTINUOUS
10
154.9923909999999978
20
-119.646608999999998
11
154.9062869999999918
21
-119.6637360000000001
0
LINE
8
BLACK
6
CONTINUOUS
10
154.9062869999999918
20
-119.6637360000000001
11
154.4562870000000032
21
-119.6637360000000001
0
LINE
8
BLACK
6
CONTINUOUS
10
154.4562870000000032
20
-119.6637360000000001
11
154.3701829999999973
21
-119.646608999999998
0
LINE
8
BLACK
6
CONTINUOUS
10
154.3701829999999973
20
-119.646608999999998
11
154.2971880000000056
21
-119.5978349999999892
0
LINE
8
BLACK
6
CONTINUOUS
10
154.2971880000000056
20
-119.5978349999999892
11
154.2484139999999968
21
-119.5248399999999975
0
LINE
8
BLACK
6
CONTINUOUS
10
154.2484139999999968
20
-119.5248399999999975
11
154.2312869999999805
21
-119.4387359999999916
0
LINE
8
BLACK
6
CONTINUOUS
10
154.2312869999999805
20
-119.4387359999999916
11
154.2312869999999805
21
-118.9387359999999916
0
LINE
8
BLACK
6
CONTINUOUS
10
154.2312869999999805
20
-118.9387359999999916
11
154.2484139999999968
21
-118.8526319999999998
0
LINE
8
BLACK
6
CONTINUOUS
10
154.2484139999999968
20
-118.8526319999999998
11
154.2971880000000056
21
-118.7796369999999939
0
LINE
8
BLACK
6
CONTINUOUS
10
154.2971880000000056
20
-118.7796369999999939
11
154.3701829999999973
21
-118.7308629999999994
0
LINE
8
BLACK
6
CONTINUOUS
10
154.3701829999999973
20
-118.7308629999999994
11
154.4562870000000032
21
-118.7137359999999973
0
LINE
8
BLACK
6
CONTINUOUS
10
154.4562870000000032
20
-118.7137359999999973
11
154.9062869999999918
21
-118.7137359999999973
0
LINE
8
BLACK
6
CONTINUOUS
10
154.9062869999999918
20
-118.7137359999999973
11
154.9923909999999978
21
-118.7308629999999994
0
LINE
8
BLACK
6
CONTINUOUS
10
158.44429599999998
20
-118.2514449999999897
11
158.5091799999999864
21
-118.2947999999999951
0
LINE
8
BLACK
6
CONTINUOUS
10
158.5091799999999864
20
-118.2947999999999951
11
158.552535000000006
21
-118.3596840000000014
0
LINE
8
BLACK
6
CONTINUOUS
10
158.552535000000006
20
-118.3596840000000014
11
158.5677589999999952
21
-118.4362209999999891
0
LINE
8
BLACK
6
CONTINUOUS
10
158.5677589999999952
20
-118.4362209999999891
11
158.5677589999999952
21
-118.9862210000000005
0
LINE
8
BLACK
6
CONTINUOUS
10
158.5677589999999952
20
-118.9862210000000005
11
158.552535000000006
21
-119.0627579999999881
0
LINE
8
BLACK
6
CONTINUOUS
10
158.552535000000006
20
-119.0627579999999881
11
158.5091799999999864
21
-119.1276419999999945
0
LINE
8
BLACK
6
CONTINUOUS
10
158.5091799999999864
20
-119.1276419999999945
11
158.44429599999998
21
-119.1709969999999998
0
LINE
8
BLACK
6
CONTINUOUS
10
158.44429599999998
20
-119.1709969999999998
11
158.3677590000000066
21
-119.1862209999999891
0
LINE
8
BLACK
6
CONTINUOUS
10
158.3677590000000066
20
-119.1862209999999891
11
157.9677590000000009
21
-119.1862209999999891
0
LINE
8
BLACK
6
CONTINUOUS
10
157.9677590000000009
20
-119.1862209999999891
11
157.8912219999999991
21
-119.1709969999999998
0
LINE
8
BLACK
6
CONTINUOUS
10
157.8912219999999991
20
-119.1709969999999998
11
157.8263379999999927
21
-119.1276419999999945
0
LINE
8
BLACK
6
CONTINUOUS
10
157.8263379999999927
20
-119.1276419999999945
11
157.7829830000000015
21
-119.0627579999999881
0
LINE
8
BLACK
6
CONTINUOUS
10
157.7829830000000015
20
-119.0627579999999881
11
157.7677589999999839
21
-118.9862210000000005
0
LINE
8
BLACK
6
CONTINUOUS
10
157.7677589999999839
20
-118.9862210000000005
11
157.7677589999999839
21
-118.4362209999999891
0
LINE
8
BLACK
6
CONTINUOUS
10
157.7677589999999839
20
-118.4362209999999891
11
157.7829830000000015
21
-118.3596840000000014
0
LINE
8
BLACK
6
CONTINUOUS
10
157.7829830000000015
20
-118.3596840000000014
11
157.8263379999999927
21
-118.2947999999999951
0
LINE
8
BLACK
6
CONTINUOUS
10
157.8263379999999927
20
-118.2947999999999951
11
157.8912219999999991
21
-118.2514449999999897
0
LINE
8
BLACK
6
CONTINUOUS
10
157.8912219999999991
20
-118.2514449999999897
11
157.9677590000000009
21
-118.2362210000000005
0
LINE
8
BLACK
6
CONTINUOUS
10
157.9677590000000009
20
-118.2362210000000005
11
158.3677590000000066
21
-118.2362210000000005
0
LINE
8
BLACK
6
CONTINUOUS
10
158.3677590000000066
20
-118.2362210000000005
11
158.44429599999998
21
-118.2514449999999897
0
LINE
8
BLACK
6
CONTINUOUS
10
160.0942959999999857
20
-118.2514449999999897
11
160.1591799999999921
21
-118.2947999999999951
0
LINE
8
BLACK
6
CONTINUOUS
10
160.1591799999999921
20
-118.2947999999999951
11
160.2025349999999833
21
-118.3596840000000014
0
LINE
8
BLACK
6
CONTINUOUS
10
160.2025349999999833
20
-118.3596840000000014
11
160.2177590000000009
21
-118.4362209999999891
0
LINE
8
BLACK
6
CONTINUOUS
10
160.2177590000000009
20
-118.4362209999999891
11
160.2177590000000009
21
-118.9862210000000005
0
LINE
8
BLACK
6
CONTINUOUS
10
160.2177590000000009
20
-118.9862210000000005
11
160.2025349999999833
21
-119.0627579999999881
0
LINE
8
BLACK
6
CONTINUOUS
10
160.2025349999999833
20
-119.0627579999999881
11
160.1591799999999921
21
-119.1276419999999945
0
LINE
8
BLACK
6
CONTINUOUS
10
160.1591799999999921
20
-119.1276419999999945
11
160.0942959999999857
21
-119.1709969999999998
0
LINE
8
BLACK
6
CONTINUOUS
10
160.0942959999999857
20
-119.1709969999999998
11
160.0177589999999839
21
-119.1862209999999891
0
LINE
8
BLACK
6
CONTINUOUS
10
160.0177589999999839
20
-119.1862209999999891
11
159.6177590000000066
21
-119.1862209999999891
0
LINE
8
BLACK
6
CONTINUOUS
10
159.6177590000000066
20
-119.1862209999999891
11
159.5412220000000048
21
-119.1709969999999998
0
LINE
8
BLACK
6
CONTINUOUS
10
159.5412220000000048
20
-119.1709969999999998
11
159.4763379999999984
21
-119.1276419999999945
0
LINE
8
BLACK
6
CONTINUOUS
10
159.4763379999999984
20
-119.1276419999999945
11
159.4329829999999788
21
-119.0627579999999881
0
LINE
8
BLACK
6
CONTINUOUS
10
159.4329829999999788
20
-119.0627579999999881
11
159.4177589999999896
21
-118.9862210000000005
0
LINE
8
BLACK
6
CONTINUOUS
10
159.4177589999999896
20
-118.9862210000000005
11
159.4177589999999896
21
-118.4362209999999891
0
LINE
8
BLACK
6
CONTINUOUS
10
159.4177589999999896
20
-118.4362209999999891
11
159.4329829999999788
21
-118.3596840000000014
0
LINE
8
BLACK
6
CONTINUOUS
10
159.4329829999999788
20
-118.3596840000000014
11
159.4763379999999984
21
-118.2947999999999951
0
LINE
8
BLACK
6
CONTINUOUS
10
159.4763379999999984
20
-118.2947999999999951
11
159.5412220000000048
21
-118.2514449999999897
0
LINE
8
BLACK
6
CONTINUOUS
10
159.5412220000000048
20
-118.2514449999999897
11
159.6177590000000066
21
-118.2362210000000005
0
LINE
8
BLACK
6
CONTINUOUS
10
159.6177590000000066
20
-118.2362210000000005
11
160.0177589999999839
21
-118.2362210000000005
0
LINE
8
BLACK
6
CONTINUOUS
10
160.0177589999999839
20
-118.2362210000000005
11
160.0942959999999857
21
-118.2514449999999897
0
LINE
8
BLACK
6
CONTINUOUS
10
169.6264950000000056
20
-119.0411939999999902
11
169.3564949999999953
21
-119.0411939999999902
0
LINE
8
BLACK
6
CONTINUOUS
10
169.3564949999999953
20
-119.0411939999999902
11
169.3564949999999953
21
-117.8411940000000016
0
LINE
8
BLACK
6
CONTINUOUS
10
169.3564949999999953
20
-117.8411940000000016
11
169.6264950000000056
21
-117.8411940000000016
0
LINE
8
BLACK
6
CONTINUOUS
10
169.6264950000000056
20
-117.8411940000000016
11
169.6264950000000056
21
-119.0411939999999902
0
LINE
8
BLACK
6
CONTINUOUS
10
170.1264950000000056
20
-119.0411939999999902
11
169.8564949999999953
21
-119.0411939999999902
0
LINE
8
BLACK
6
CONTINUOUS
10
169.8564949999999953
20
-119.0411939999999902
11
169.8564949999999953
21
-117.8411940000000016
0
LINE
8
BLACK
6
CONTINUOUS
10
169.8564949999999953
20
-117.8411940000000016
11
170.1264950000000056
21
-117.8411940000000016
0
LINE
8
BLACK
6
CONTINUOUS
10
170.1264950000000056
20
-117.8411940000000016
11
170.1264950000000056
21
-119.0411939999999902
0
LINE
8
BLACK
6
CONTINUOUS
10
170.6264950000000056
20
-119.0411939999999902
11
170.3564949999999953
21
-119.0411939999999902
0
LINE
8
BLACK
6
CONTINUOUS
10
170.3564949999999953
20
-119.0411939999999902
11
170.3564949999999953
21
-117.8411940000000016
0
LINE
8
BLACK
6
CONTINUOUS
10
170.3564949999999953
20
-117.8411940000000016
11
170.6264950000000056
21
-117.8411940000000016
0
LINE
8
BLACK
6
CONTINUOUS
10
170.6264950000000056
20
-117.8411940000000016
11
170.6264950000000056
21
-119.0411939999999902
0
LINE
8
BLACK
6
CONTINUOUS
10
171.1264950000000056
20
-119.0411939999999902
11
170.8564949999999953
21
-119.0411939999999902
0
LINE
8
BLACK
6
CONTINUOUS
10
170.8564949999999953
20
-119.0411939999999902
11
170.8564949999999953
21
-117.8411940000000016
0
LINE
8
BLACK
6
CONTINUOUS
10
170.8564949999999953
20
-117.8411940000000016
11
171.1264950000000056
21
-117.8411940000000016
0
LINE
8
BLACK
6
CONTINUOUS
10
171.1264950000000056
20
-117.8411940000000016
11
171.1264950000000056
21
-119.0411939999999902
0
LINE
8
BLACK
6
CONTINUOUS
10
171.6264950000000056
20
-119.0411939999999902
11
171.3564949999999953
21
-119.0411939999999902
0
LINE
8
BLACK
6
CONTINUOUS
10
171.3564949999999953
20
-119.0411939999999902
11
171.3564949999999953
21
-117.8411940000000016
0
LINE
8
BLACK
6
CONTINUOUS
10
171.3564949999999953
20
-117.8411940000000016
11
171.6264950000000056
21
-117.8411940000000016
0
LINE
8
BLACK
6
CONTINUOUS
10
171.6264950000000056
20
-117.8411940000000016
11
171.6264950000000056
21
-119.0411939999999902
0
LINE
8
BLACK
6
CONTINUOUS
10
172.1264950000000056
20
-119.0411939999999902
11
171.8564949999999953
21
-119.0411939999999902
0
LINE
8
BLACK
6
CONTINUOUS
10
171.8564949999999953
20
-119.0411939999999902
11
171.8564949999999953
21
-117.8411940000000016
0
LINE
8
BLACK
6
CONTINUOUS
10
171.8564949999999953
20
-117.8411940000000016
11
172.1264950000000056
21
-117.8411940000000016
0
LINE
8
BLACK
6
CONTINUOUS
10
172.1264950000000056
20
-117.8411940000000016
11
172.1264950000000056
21
-119.0411939999999902
0
LINE
8
BLACK
6
CONTINUOUS
10
172.6264950000000056
20
-119.0411939999999902
11
172.3564949999999953
21
-119.0411939999999902
0
LINE
8
BLACK
6
CONTINUOUS
10
172.3564949999999953
20
-119.0411939999999902
11
172.3564949999999953
21
-117.8411940000000016
0
LINE
8
BLACK
6
CONTINUOUS
10
172.3564949999999953
20
-117.8411940000000016
11
172.6264950000000056
21
-117.8411940000000016
0
LINE
8
BLACK
6
CONTINUOUS
10
172.6264950000000056
20
-117.8411940000000016
11
172.6264950000000056
21
-119.0411939999999902
0
LINE
8
BLACK
6
CONTINUOUS
10
173.1264950000000056
20
-119.0411939999999902
11
172.8564949999999953
21
-119.0411939999999902
0
LINE
8
BLACK
6
CONTINUOUS
10
172.8564949999999953
20
-119.0411939999999902
11
172.8564949999999953
21
-117.8411940000000016
0
LINE
8
BLACK
6
CONTINUOUS
10
172.8564949999999953
20
-117.8411940000000016
11
173.1264950000000056
21
-117.8411940000000016
0
LINE
8
BLACK
6
CONTINUOUS
10
173.1264950000000056
20
-117.8411940000000016
11
173.1264950000000056
21
-119.0411939999999902
0
LINE
8
BLACK
6
CONTINUOUS
10
173.6264950000000056
20
-119.0411939999999902
11
173.3564949999999953
21
-119.0411939999999902
0
LINE
8
BLACK
6
CONTINUOUS
10
173.3564949999999953
20
-119.0411939999999902
11
173.3564949999999953
21
-117.8411940000000016
0
LINE
8
BLACK
6
CONTINUOUS
10
173.3564949999999953
20
-117.8411940000000016
11
173.6264950000000056
21
-117.8411940000000016
0
LINE
8
BLACK
6
CONTINUOUS
10
173.6264950000000056
20
-117.8411940000000016
11
173.6264950000000056
21
-119.0411939999999902
0
LINE
8
BLACK
6
CONTINUOUS
10
174.1264950000000056
20
-119.0411939999999902
11
173.8564949999999953
21
-119.0411939999999902
0
LINE
8
BLACK
6
CONTINUOUS
10
173.8564949999999953
20
-119.0411939999999902
11
173.8564949999999953
21
-117.8411940000000016
0
LINE
8
BLACK
6
CONTINUOUS
10
173.8564949999999953
20
-117.8411940000000016
11
174.1264950000000056
21
-117.8411940000000016
0
LINE
8
BLACK
6
CONTINUOUS
10
174.1264950000000056
20
-117.8411940000000016
11
174.1264950000000056
21
-119.0411939999999902
0
LINE
8
BLACK
6
CONTINUOUS
10
174.6264950000000056
20
-119.0411939999999902
11
174.3564949999999953
21
-119.0411939999999902
0
LINE
8
BLACK
6
CONTINUOUS
10
174.3564949999999953
20
-119.0411939999999902
11
174.3564949999999953
21
-117.8411940000000016
0
LINE
8
BLACK
6
CONTINUOUS
10
174.3564949999999953
20
-117.8411940000000016
11
174.6264950000000056
21
-117.8411940000000016
0
LINE
8
BLACK
6
CONTINUOUS
10
174.6264950000000056
20
-117.8411940000000016
11
174.6264950000000056
21
-119.0411939999999902
0
LINE
8
BLACK
6
CONTINUOUS
10
175.1264950000000056
20
-119.0411939999999902
11
174.8564949999999953
21
-119.0411939999999902
0
LINE
8
BLACK
6
CONTINUOUS
10
174.8564949999999953
20
-119.0411939999999902
11
174.8564949999999953
21
-117.8411940000000016
0
LINE
8
BLACK
6
CONTINUOUS
10
174.8564949999999953
20
-117.8411940000000016
11
175.1264950000000056
21
-117.8411940000000016
0
LINE
8
BLACK
6
CONTINUOUS
10
175.1264950000000056
20
-117.8411940000000016
11
175.1264950000000056
21
-119.0411939999999902
0
LINE
8
BLACK
6
CONTINUOUS
10
163.7860230000000001
20
-118.2983789999999971
11
163.8346860000000049
21
-118.3308949999999982
0
LINE
8
BLACK
6
CONTINUOUS
10
163.8346860000000049
20
-118.3308949999999982
11
163.8672019999999918
21
-118.3795579999999887
0
LINE
8
BLACK
6
CONTINUOUS
10
163.8672019999999918
20
-118.3795579999999887
11
163.8786199999999837
21
-118.4369609999999966
0
LINE
8
BLACK
6
CONTINUOUS
10
163.8786199999999837
20
-118.4369609999999966
11
163.8786199999999837
21
-118.7369609999999938
0
LINE
8
BLACK
6
CONTINUOUS
10
163.8786199999999837
20
-118.7369609999999938
11
163.8672019999999918
21
-118.7943640000000016
0
LINE
8
BLACK
6
CONTINUOUS
10
163.8672019999999918
20
-118.7943640000000016
11
163.8346860000000049
21
-118.8430269999999922
0
LINE
8
BLACK
6
CONTINUOUS
10
163.8346860000000049
20
-118.8430269999999922
11
163.7860230000000001
21
-118.8755429999999933
0
LINE
8
BLACK
6
CONTINUOUS
10
163.7860230000000001
20
-118.8755429999999933
11
163.7286200000000065
21
-118.8869609999999994
0
LINE
8
BLACK
6
CONTINUOUS
10
163.7286200000000065
20
-118.8869609999999994
11
162.5536199999999951
21
-118.8869609999999994
0
LINE
8
BLACK
6
CONTINUOUS
10
162.5536199999999951
20
-118.8869609999999994
11
162.4962170000000015
21
-118.8755429999999933
0
LINE
8
BLACK
6
CONTINUOUS
10
162.4962170000000015
20
-118.8755429999999933
11
162.4475539999999967
21
-118.8430269999999922
0
LINE
8
BLACK
6
CONTINUOUS
10
162.4475539999999967
20
-118.8430269999999922
11
162.4150379999999814
21
-118.7943640000000016
0
LINE
8
BLACK
6
CONTINUOUS
10
162.4150379999999814
20
-118.7943640000000016
11
162.4036199999999894
21
-118.7369609999999938
0
LINE
8
BLACK
6
CONTINUOUS
10
162.4036199999999894
20
-118.7369609999999938
11
162.4036199999999894
21
-118.4369609999999966
0
LINE
8
BLACK
6
CONTINUOUS
10
162.4036199999999894
20
-118.4369609999999966
11
162.4150379999999814
21
-118.3795579999999887
0
LINE
8
BLACK
6
CONTINUOUS
10
162.4150379999999814
20
-118.3795579999999887
11
162.4475539999999967
21
-118.3308949999999982
0
LINE
8
BLACK
6
CONTINUOUS
10
162.4475539999999967
20
-118.3308949999999982
11
162.4962170000000015
21
-118.2983789999999971
0
LINE
8
BLACK
6
CONTINUOUS
10
162.4962170000000015
20
-118.2983789999999971
11
162.5536199999999951
21
-118.2869609999999909
0
LINE
8
BLACK
6
CONTINUOUS
10
162.5536199999999951
20
-118.2869609999999909
11
163.7286200000000065
21
-118.2869609999999909
0
LINE
8
BLACK
6
CONTINUOUS
10
163.7286200000000065
20
-118.2869609999999909
11
163.7860230000000001
21
-118.2983789999999971
0
LINE
8
BLACK
6
CONTINUOUS
10
156.5423079999999914
20
-118.2790639999999911
11
156.5788059999999859
21
-118.303449999999998
0
LINE
8
BLACK
6
CONTINUOUS
10
156.5788059999999859
20
-118.303449999999998
11
156.6031920000000071
21
-118.3399479999999926
0
LINE
8
BLACK
6
CONTINUOUS
10
156.6031920000000071
20
-118.3399479999999926
11
156.6117559999999855
21
-118.3829999999999956
0
LINE
8
BLACK
6
CONTINUOUS
10
156.6117559999999855
20
-118.3829999999999956
11
156.6117559999999855
21
-118.7579999999999956
0
LINE
8
BLACK
6
CONTINUOUS
10
156.6117559999999855
20
-118.7579999999999956
11
156.6031920000000071
21
-118.8010519999999985
0
LINE
8
BLACK
6
CONTINUOUS
10
156.6031920000000071
20
-118.8010519999999985
11
156.5788059999999859
21
-118.8375499999999931
0
LINE
8
BLACK
6
CONTINUOUS
10
156.5788059999999859
20
-118.8375499999999931
11
156.5423079999999914
21
-118.861936
0
LINE
8
BLACK
6
CONTINUOUS
10
156.5423079999999914
20
-118.861936
11
156.4992560000000026
21
-118.8704999999999927
0
LINE
8
BLACK
6
CONTINUOUS
10
156.4992560000000026
20
-118.8704999999999927
11
156.2742559999999798
21
-118.8704999999999927
0
LINE
8
BLACK
6
CONTINUOUS
10
156.2742559999999798
20
-118.8704999999999927
11
156.2312039999999911
21
-118.861936
0
LINE
8
BLACK
6
CONTINUOUS
10
156.2312039999999911
20
-118.861936
11
156.1947059999999965
21
-118.8375499999999931
0
LINE
8
BLACK
6
CONTINUOUS
10
156.1947059999999965
20
-118.8375499999999931
11
156.1703200000000038
21
-118.8010519999999985
0
LINE
8
BLACK
6
CONTINUOUS
10
156.1703200000000038
20
-118.8010519999999985
11
156.1617559999999969
21
-118.7579999999999956
0
LINE
8
BLACK
6
CONTINUOUS
10
156.1617559999999969
20
-118.7579999999999956
11
156.1617559999999969
21
-118.3829999999999956
0
LINE
8
BLACK
6
CONTINUOUS
10
156.1617559999999969
20
-118.3829999999999956
11
156.1703200000000038
21
-118.3399479999999926
0
LINE
8
BLACK
6
CONTINUOUS
10
156.1703200000000038
20
-118.3399479999999926
11
156.1947059999999965
21
-118.303449999999998
0
LINE
8
BLACK
6
CONTINUOUS
10
156.1947059999999965
20
-118.303449999999998
11
156.2312039999999911
21
-118.2790639999999911
0
LINE
8
BLACK
6
CONTINUOUS
10
156.2312039999999911
20
-118.2790639999999911
11
156.2742559999999798
21
-118.2704999999999984
0
LINE
8
BLACK
6
CONTINUOUS
10
156.2742559999999798
20
-118.2704999999999984
11
156.4992560000000026
21
-118.2704999999999984
0
LINE
8
BLACK
6
CONTINUOUS
10
156.4992560000000026
20
-118.2704999999999984
11
156.5423079999999914
21
-118.2790639999999911
0
LINE
8
BLACK
6
CONTINUOUS
10
167.2200699999999927
20
-117.8028389999999916
11
167.2930649999999844
21
-117.8516130000000004
0
LINE
8
BLACK
6
CONTINUOUS
10
167.2930649999999844
20
-117.8516130000000004
11
167.3418389999999931
21
-117.9246079999999921
0
LINE
8
BLACK
6
CONTINUOUS
10
167.3418389999999931
20
-117.9246079999999921
11
167.358965999999981
21
-118.0107119999999981
0
LINE
8
BLACK
6
CONTINUOUS
10
167.358965999999981
20
-118.0107119999999981
11
167.358965999999981
21
-118.5107119999999981
0
LINE
8
BLACK
6
CONTINUOUS
10
167.358965999999981
20
-118.5107119999999981
11
167.3418389999999931
21
-118.5968159999999898
0
LINE
8
BLACK
6
CONTINUOUS
10
167.3418389999999931
20
-118.5968159999999898
11
167.2930649999999844
21
-118.6698109999999957
0
LINE
8
BLACK
6
CONTINUOUS
10
167.2930649999999844
20
-118.6698109999999957
11
167.2200699999999927
21
-118.7185849999999903
0
LINE
8
BLACK
6
CONTINUOUS
10
167.2200699999999927
20
-118.7185849999999903
11
167.1339659999999867
21
-118.7357119999999924
0
LINE
8
BLACK
6
CONTINUOUS
10
167.1339659999999867
20
-118.7357119999999924
11
166.6839659999999981
21
-118.7357119999999924
0
LINE
8
BLACK
6
CONTINUOUS
10
166.6839659999999981
20
-118.7357119999999924
11
166.5978619999999921
21
-118.7185849999999903
0
LINE
8
BLACK
6
CONTINUOUS
10
166.5978619999999921
20
-118.7185849999999903
11
166.5248670000000004
21
-118.6698109999999957
0
LINE
8
BLACK
6
CONTINUOUS
10
166.5248670000000004
20
-118.6698109999999957
11
166.4760929999999917
21
-118.5968159999999898
0
LINE
8
BLACK
6
CONTINUOUS
10
166.4760929999999917
20
-118.5968159999999898
11
166.4589660000000038
21
-118.5107119999999981
0
LINE
8
BLACK
6
CONTINUOUS
10
166.4589660000000038
20
-118.5107119999999981
11
166.4589660000000038
21
-118.0107119999999981
0
LINE
8
BLACK
6
CONTINUOUS
10
166.4589660000000038
20
-118.0107119999999981
11
166.4760929999999917
21
-117.9246079999999921
0
LINE
8
BLACK
6
CONTINUOUS
10
166.4760929999999917
20
-117.9246079999999921
11
166.5248670000000004
21
-117.8516130000000004
0
LINE
8
BLACK
6
CONTINUOUS
10
166.5248670000000004
20
-117.8516130000000004
11
166.5978619999999921
21
-117.8028389999999916
0
LINE
8
BLACK
6
CONTINUOUS
10
166.5978619999999921
20
-117.8028389999999916
11
166.6839659999999981
21
-117.7857119999999895
0
LINE
8
BLACK
6
CONTINUOUS
10
166.6839659999999981
20
-117.7857119999999895
11
167.1339659999999867
21
-117.7857119999999895
0
LINE
8
BLACK
6
CONTINUOUS
10
167.1339659999999867
20
-117.7857119999999895
11
167.2200699999999927
21
-117.8028389999999916
0
LINE
8
BLACK
6
CONTINUOUS
10
168.770070000000004
20
-117.8028389999999916
11
168.8430649999999957
21
-117.8516130000000004
0
LINE
8
BLACK
6
CONTINUOUS
10
168.8430649999999957
20
-117.8516130000000004
11
168.8918390000000045
21
-117.9246079999999921
0
LINE
8
BLACK
6
CONTINUOUS
10
168.8918390000000045
20
-117.9246079999999921
11
168.9089659999999924
21
-118.0107119999999981
0
LINE
8
BLACK
6
CONTINUOUS
10
168.9089659999999924
20
-118.0107119999999981
11
168.9089659999999924
21
-118.5107119999999981
0
LINE
8
BLACK
6
CONTINUOUS
10
168.9089659999999924
20
-118.5107119999999981
11
168.8918390000000045
21
-118.5968159999999898
0
LINE
8
BLACK
6
CONTINUOUS
10
168.8918390000000045
20
-118.5968159999999898
11
168.8430649999999957
21
-118.6698109999999957
0
LINE
8
BLACK
6
CONTINUOUS
10
168.8430649999999957
20
-118.6698109999999957
11
168.770070000000004
21
-118.7185849999999903
0
LINE
8
BLACK
6
CONTINUOUS
10
168.770070000000004
20
-118.7185849999999903
11
168.6839659999999981
21
-118.7357119999999924
0
LINE
8
BLACK
6
CONTINUOUS
10
168.6839659999999981
20
-118.7357119999999924
11
168.233965999999981
21
-118.7357119999999924
0
LINE
8
BLACK
6
CONTINUOUS
10
168.233965999999981
20
-118.7357119999999924
11
168.1478620000000035
21
-118.7185849999999903
0
LINE
8
BLACK
6
CONTINUOUS
10
168.1478620000000035
20
-118.7185849999999903
11
168.0748669999999834
21
-118.6698109999999957
0
LINE
8
BLACK
6
CONTINUOUS
10
168.0748669999999834
20
-118.6698109999999957
11
168.026093000000003
21
-118.5968159999999898
0
LINE
8
BLACK
6
CONTINUOUS
10
168.026093000000003
20
-118.5968159999999898
11
168.0089659999999867
21
-118.5107119999999981
0
LINE
8
BLACK
6
CONTINUOUS
10
168.0089659999999867
20
-118.5107119999999981
11
168.0089659999999867
21
-118.0107119999999981
0
LINE
8
BLACK
6
CONTINUOUS
10
168.0089659999999867
20
-118.0107119999999981
11
168.026093000000003
21
-117.9246079999999921
0
LINE
8
BLACK
6
CONTINUOUS
10
168.026093000000003
20
-117.9246079999999921
11
168.0748669999999834
21
-117.8516130000000004
0
LINE
8
BLACK
6
CONTINUOUS
10
168.0748669999999834
20
-117.8516130000000004
11
168.1478620000000035
21
-117.8028389999999916
0
LINE
8
BLACK
6
CONTINUOUS
10
168.1478620000000035
20
-117.8028389999999916
11
168.233965999999981
21
-117.7857119999999895
0
LINE
8
BLACK
6
CONTINUOUS
10
168.233965999999981
20
-117.7857119999999895
11
168.6839659999999981
21
-117.7857119999999895
0
LINE
8
BLACK
6
CONTINUOUS
10
168.6839659999999981
20
-117.7857119999999895
11
168.770070000000004
21
-117.8028389999999916
0
LINE
8
BLACK
6
CONTINUOUS
10
151.0893629999999916
20
-116.1712309999999917
11
151.1704689999999971
21
-116.2254239999999896
0
LINE
8
BLACK
6
CONTINUOUS
10
151.1704689999999971
20
-116.2254239999999896
11
151.224661999999995
21
-116.3065299999999951
0
LINE
8
BLACK
6
CONTINUOUS
10
151.224661999999995
20
-116.3065299999999951
11
151.2436919999999816
21
-116.4022009999999909
0
LINE
8
BLACK
6
CONTINUOUS
10
151.2436919999999816
20
-116.4022009999999909
11
151.2436919999999816
21
-118.4022009999999909
0
LINE
8
BLACK
6
CONTINUOUS
10
151.2436919999999816
20
-118.4022009999999909
11
151.224661999999995
21
-118.497872000000001
0
LINE
8
BLACK
6
CONTINUOUS
10
151.224661999999995
20
-118.497872000000001
11
151.1704689999999971
21
-118.5789779999999922
0
LINE
8
BLACK
6
CONTINUOUS
10
151.1704689999999971
20
-118.5789779999999922
11
151.0893629999999916
21
-118.6331709999999902
0
LINE
8
BLACK
6
CONTINUOUS
10
151.0893629999999916
20
-118.6331709999999902
11
150.9936919999999816
21
-118.6522009999999909
0
LINE
8
BLACK
6
CONTINUOUS
10
150.9936919999999816
20
-118.6522009999999909
11
149.6936919999999986
21
-118.6522009999999909
0
LINE
8
BLACK
6
CONTINUOUS
10
149.6936919999999986
20
-118.6522009999999909
11
149.5980209999999886
21
-118.6331709999999902
0
LINE
8
BLACK
6
CONTINUOUS
10
149.5980209999999886
20
-118.6331709999999902
11
149.5169149999999831
21
-118.5789779999999922
0
LINE
8
BLACK
6
CONTINUOUS
10
149.5169149999999831
20
-118.5789779999999922
11
149.4627219999999852
21
-118.497872000000001
0
LINE
8
BLACK
6
CONTINUOUS
10
149.4627219999999852
20
-118.497872000000001
11
149.4436919999999986
21
-118.4022009999999909
0
LINE
8
BLACK
6
CONTINUOUS
10
149.4436919999999986
20
-118.4022009999999909
11
149.4436919999999986
21
-116.4022009999999909
0
LINE
8
BLACK
6
CONTINUOUS
10
149.4436919999999986
20
-116.4022009999999909
11
149.4627219999999852
21
-116.3065299999999951
0
LINE
8
BLACK
6
CONTINUOUS
10
149.4627219999999852
20
-116.3065299999999951
11
149.5169149999999831
21
-116.2254239999999896
0
LINE
8
BLACK
6
CONTINUOUS
10
149.5169149999999831
20
-116.2254239999999896
11
149.5980209999999886
21
-116.1712309999999917
0
LINE
8
BLACK
6
CONTINUOUS
10
149.5980209999999886
20
-116.1712309999999917
11
149.6936919999999986
21
-116.1522009999999909
0
LINE
8
BLACK
6
CONTINUOUS
10
149.6936919999999986
20
-116.1522009999999909
11
150.9936919999999816
21
-116.1522009999999909
0
LINE
8
BLACK
6
CONTINUOUS
10
150.9936919999999816
20
-116.1522009999999909
11
151.0893629999999916
21
-116.1712309999999917
0
LINE
8
BLACK
6
CONTINUOUS
10
183.7485409999999888
20
-117.5568589999999887
11
183.8134249999999952
21
-117.600213999999994
0
LINE
8
BLACK
6
CONTINUOUS
10
183.8134249999999952
20
-117.600213999999994
11
183.8567799999999863
21
-117.6650980000000004
0
LINE
8
BLACK
6
CONTINUOUS
10
183.8567799999999863
20
-117.6650980000000004
11
183.872004000000004
21
-117.7416349999999881
0
LINE
8
BLACK
6
CONTINUOUS
10
183.872004000000004
20
-117.7416349999999881
11
183.872004000000004
21
-118.2916349999999994
0
LINE
8
BLACK
6
CONTINUOUS
10
183.872004000000004
20
-118.2916349999999994
11
183.8567799999999863
21
-118.3681720000000013
0
LINE
8
BLACK
6
CONTINUOUS
10
183.8567799999999863
20
-118.3681720000000013
11
183.8134249999999952
21
-118.4330559999999934
0
LINE
8
BLACK
6
CONTINUOUS
10
183.8134249999999952
20
-118.4330559999999934
11
183.7485409999999888
21
-118.4764109999999988
0
LINE
8
BLACK
6
CONTINUOUS
10
183.7485409999999888
20
-118.4764109999999988
11
183.6720039999999869
21
-118.4916349999999881
0
LINE
8
BLACK
6
CONTINUOUS
10
183.6720039999999869
20
-118.4916349999999881
11
183.2720039999999813
21
-118.4916349999999881
0
LINE
8
BLACK
6
CONTINUOUS
10
183.2720039999999813
20
-118.4916349999999881
11
183.1954669999999794
21
-118.4764109999999988
0
LINE
8
BLACK
6
CONTINUOUS
10
183.1954669999999794
20
-118.4764109999999988
11
183.1305830000000014
21
-118.4330559999999934
0
LINE
8
BLACK
6
CONTINUOUS
10
183.1305830000000014
20
-118.4330559999999934
11
183.0872279999999819
21
-118.3681720000000013
0
LINE
8
BLACK
6
CONTINUOUS
10
183.0872279999999819
20
-118.3681720000000013
11
183.0720039999999926
21
-118.2916349999999994
0
LINE
8
BLACK
6
CONTINUOUS
10
183.0720039999999926
20
-118.2916349999999994
11
183.0720039999999926
21
-117.7416349999999881
0
LINE
8
BLACK
6
CONTINUOUS
10
183.0720039999999926
20
-117.7416349999999881
11
183.0872279999999819
21
-117.6650980000000004
0
LINE
8
BLACK
6
CONTINUOUS
10
183.0872279999999819
20
-117.6650980000000004
11
183.1305830000000014
21
-117.600213999999994
0
LINE
8
BLACK
6
CONTINUOUS
10
183.1305830000000014
20
-117.600213999999994
11
183.1954669999999794
21
-117.5568589999999887
0
LINE
8
BLACK
6
CONTINUOUS
10
183.1954669999999794
20
-117.5568589999999887
11
183.2720039999999813
21
-117.5416349999999994
0
LINE
8
BLACK
6
CONTINUOUS
10
183.2720039999999813
20
-117.5416349999999994
11
183.6720039999999869
21
-117.5416349999999994
0
LINE
8
BLACK
6
CONTINUOUS
10
183.6720039999999869
20
-117.5416349999999994
11
183.7485409999999888
21
-117.5568589999999887
0
LINE
8
BLACK
6
CONTINUOUS
10
185.3985409999999945
20
-117.5568589999999887
11
185.4634250000000009
21
-117.600213999999994
0
LINE
8
BLACK
6
CONTINUOUS
10
185.4634250000000009
20
-117.600213999999994
11
185.506779999999992
21
-117.6650980000000004
0
LINE
8
BLACK
6
CONTINUOUS
10
185.506779999999992
20
-117.6650980000000004
11
185.5220039999999813
21
-117.7416349999999881
0
LINE
8
BLACK
6
CONTINUOUS
10
185.5220039999999813
20
-117.7416349999999881
11
185.5220039999999813
21
-118.2916349999999994
0
LINE
8
BLACK
6
CONTINUOUS
10
185.5220039999999813
20
-118.2916349999999994
11
185.506779999999992
21
-118.3681720000000013
0
LINE
8
BLACK
6
CONTINUOUS
10
185.506779999999992
20
-118.3681720000000013
11
185.4634250000000009
21
-118.4330559999999934
0
LINE
8
BLACK
6
CONTINUOUS
10
185.4634250000000009
20
-118.4330559999999934
11
185.3985409999999945
21
-118.4764109999999988
0
LINE
8
BLACK
6
CONTINUOUS
10
185.3985409999999945
20
-118.4764109999999988
11
185.3220039999999926
21
-118.4916349999999881
0
LINE
8
BLACK
6
CONTINUOUS
10
185.3220039999999926
20
-118.4916349999999881
11
184.9220039999999869
21
-118.4916349999999881
0
LINE
8
BLACK
6
CONTINUOUS
10
184.9220039999999869
20
-118.4916349999999881
11
184.8454669999999851
21
-118.4764109999999988
0
LINE
8
BLACK
6
CONTINUOUS
10
184.8454669999999851
20
-118.4764109999999988
11
184.7805829999999787
21
-118.4330559999999934
0
LINE
8
BLACK
6
CONTINUOUS
10
184.7805829999999787
20
-118.4330559999999934
11
184.7372279999999876
21
-118.3681720000000013
0
LINE
8
BLACK
6
CONTINUOUS
10
184.7372279999999876
20
-118.3681720000000013
11
184.7220039999999983
21
-118.2916349999999994
0
LINE
8
BLACK
6
CONTINUOUS
10
184.7220039999999983
20
-118.2916349999999994
11
184.7220039999999983
21
-117.7416349999999881
0
LINE
8
BLACK
6
CONTINUOUS
10
184.7220039999999983
20
-117.7416349999999881
11
184.7372279999999876
21
-117.6650980000000004
0
LINE
8
BLACK
6
CONTINUOUS
10
184.7372279999999876
20
-117.6650980000000004
11
184.7805829999999787
21
-117.600213999999994
0
LINE
8
BLACK
6
CONTINUOUS
10
184.7805829999999787
20
-117.600213999999994
11
184.8454669999999851
21
-117.5568589999999887
0
LINE
8
BLACK
6
CONTINUOUS
10
184.8454669999999851
20
-117.5568589999999887
11
184.9220039999999869
21
-117.5416349999999994
0
LINE
8
BLACK
6
CONTINUOUS
10
184.9220039999999869
20
-117.5416349999999994
11
185.3220039999999926
21
-117.5416349999999994
0
LINE
8
BLACK
6
CONTINUOUS
10
185.3220039999999926
20
-117.5416349999999994
11
185.3985409999999945
21
-117.5568589999999887
0
LINE
8
BLACK
6
CONTINUOUS
10
186.7931079999999895
20
-117.5587620000000015
11
186.8661029999999812
21
-117.6075359999999961
0
LINE
8
BLACK
6
CONTINUOUS
10
186.8661029999999812
20
-117.6075359999999961
11
186.9148769999999899
21
-117.6805309999999878
0
LINE
8
BLACK
6
CONTINUOUS
10
186.9148769999999899
20
-117.6805309999999878
11
186.9320039999999779
21
-117.7666349999999937
0
LINE
8
BLACK
6
CONTINUOUS
10
186.9320039999999779
20
-117.7666349999999937
11
186.9320039999999779
21
-118.2666349999999937
0
LINE
8
BLACK
6
CONTINUOUS
10
186.9320039999999779
20
-118.2666349999999937
11
186.9148769999999899
21
-118.3527389999999997
0
LINE
8
BLACK
6
CONTINUOUS
10
186.9148769999999899
20
-118.3527389999999997
11
186.8661029999999812
21
-118.4257339999999914
0
LINE
8
BLACK
6
CONTINUOUS
10
186.8661029999999812
20
-118.4257339999999914
11
186.7931079999999895
21
-118.4745080000000002
0
LINE
8
BLACK
6
CONTINUOUS
10
186.7931079999999895
20
-118.4745080000000002
11
186.7070039999999835
21
-118.4916349999999881
0
LINE
8
BLACK
6
CONTINUOUS
10
186.7070039999999835
20
-118.4916349999999881
11
186.2570039999999949
21
-118.4916349999999881
0
LINE
8
BLACK
6
CONTINUOUS
10
186.2570039999999949
20
-118.4916349999999881
11
186.1708999999999889
21
-118.4745080000000002
0
LINE
8
BLACK
6
CONTINUOUS
10
186.1708999999999889
20
-118.4745080000000002
11
186.0979049999999972
21
-118.4257339999999914
0
LINE
8
BLACK
6
CONTINUOUS
10
186.0979049999999972
20
-118.4257339999999914
11
186.0491309999999885
21
-118.3527389999999997
0
LINE
8
BLACK
6
CONTINUOUS
10
186.0491309999999885
20
-118.3527389999999997
11
186.0320040000000006
21
-118.2666349999999937
0
LINE
8
BLACK
6
CONTINUOUS
10
186.0320040000000006
20
-118.2666349999999937
11
186.0320040000000006
21
-117.7666349999999937
0
LINE
8
BLACK
6
CONTINUOUS
10
186.0320040000000006
20
-117.7666349999999937
11
186.0491309999999885
21
-117.6805309999999878
0
LINE
8
BLACK
6
CONTINUOUS
10
186.0491309999999885
20
-117.6805309999999878
11
186.0979049999999972
21
-117.6075359999999961
0
LINE
8
BLACK
6
CONTINUOUS
10
186.0979049999999972
20
-117.6075359999999961
11
186.1708999999999889
21
-117.5587620000000015
0
LINE
8
BLACK
6
CONTINUOUS
10
186.1708999999999889
20
-117.5587620000000015
11
186.2570039999999949
21
-117.5416349999999994
0
LINE
8
BLACK
6
CONTINUOUS
10
186.2570039999999949
20
-117.5416349999999994
11
186.7070039999999835
21
-117.5416349999999994
0
LINE
8
BLACK
6
CONTINUOUS
10
186.7070039999999835
20
-117.5416349999999994
11
186.7931079999999895
21
-117.5587620000000015
0
LINE
8
BLACK
6
CONTINUOUS
10
188.3431080000000009
20
-117.5587620000000015
11
188.4161029999999926
21
-117.6075359999999961
0
LINE
8
BLACK
6
CONTINUOUS
10
188.4161029999999926
20
-117.6075359999999961
11
188.4648770000000013
21
-117.6805309999999878
0
LINE
8
BLACK
6
CONTINUOUS
10
188.4648770000000013
20
-117.6805309999999878
11
188.4820039999999892
21
-117.7666349999999937
0
LINE
8
BLACK
6
CONTINUOUS
10
188.4820039999999892
20
-117.7666349999999937
11
188.4820039999999892
21
-118.2666349999999937
0
LINE
8
BLACK
6
CONTINUOUS
10
188.4820039999999892
20
-118.2666349999999937
11
188.4648770000000013
21
-118.3527389999999997
0
LINE
8
BLACK
6
CONTINUOUS
10
188.4648770000000013
20
-118.3527389999999997
11
188.4161029999999926
21
-118.4257339999999914
0
LINE
8
BLACK
6
CONTINUOUS
10
188.4161029999999926
20
-118.4257339999999914
11
188.3431080000000009
21
-118.4745080000000002
0
LINE
8
BLACK
6
CONTINUOUS
10
188.3431080000000009
20
-118.4745080000000002
11
188.2570039999999949
21
-118.4916349999999881
0
LINE
8
BLACK
6
CONTINUOUS
10
188.2570039999999949
20
-118.4916349999999881
11
187.8070039999999779
21
-118.4916349999999881
0
LINE
8
BLACK
6
CONTINUOUS
10
187.8070039999999779
20
-118.4916349999999881
11
187.7209000000000003
21
-118.4745080000000002
0
LINE
8
BLACK
6
CONTINUOUS
10
187.7209000000000003
20
-118.4745080000000002
11
187.6479049999999802
21
-118.4257339999999914
0
LINE
8
BLACK
6
CONTINUOUS
10
187.6479049999999802
20
-118.4257339999999914
11
187.5991309999999999
21
-118.3527389999999997
0
LINE
8
BLACK
6
CONTINUOUS
10
187.5991309999999999
20
-118.3527389999999997
11
187.5820039999999835
21
-118.2666349999999937
0
LINE
8
BLACK
6
CONTINUOUS
10
187.5820039999999835
20
-118.2666349999999937
11
187.5820039999999835
21
-117.7666349999999937
0
LINE
8
BLACK
6
CONTINUOUS
10
187.5820039999999835
20
-117.7666349999999937
11
187.5991309999999999
21
-117.6805309999999878
0
LINE
8
BLACK
6
CONTINUOUS
10
187.5991309999999999
20
-117.6805309999999878
11
187.6479049999999802
21
-117.6075359999999961
0
LINE
8
BLACK
6
CONTINUOUS
10
187.6479049999999802
20
-117.6075359999999961
11
187.7209000000000003
21
-117.5587620000000015
0
LINE
8
BLACK
6
CONTINUOUS
10
187.7209000000000003
20
-117.5587620000000015
11
187.8070039999999779
21
-117.5416349999999994
0
LINE
8
BLACK
6
CONTINUOUS
10
187.8070039999999779
20
-117.5416349999999994
11
188.2570039999999949
21
-117.5416349999999994
0
LINE
8
BLACK
6
CONTINUOUS
10
188.2570039999999949
20
-117.5416349999999994
11
188.3431080000000009
21
-117.5587620000000015
0
LINE
8
BLACK
6
CONTINUOUS
10
195.8511330000000044
20
-118.2322009999999892
11
194.051132999999993
21
-118.2322009999999892
0
LINE
8
BLACK
6
CONTINUOUS
10
194.051132999999993
20
-118.2322009999999892
11
194.051132999999993
21
-117.0322010000000006
0
LINE
8
BLACK
6
CONTINUOUS
10
194.051132999999993
20
-117.0322010000000006
11
195.8511330000000044
21
-117.0322010000000006
0
LINE
8
BLACK
6
CONTINUOUS
10
195.8511330000000044
20
-117.0322010000000006
11
195.8511330000000044
21
-118.2322009999999892
0
LINE
8
BLACK
6
CONTINUOUS
10
203.8511330000000044
20
-118.2322009999999892
11
202.051132999999993
21
-118.2322009999999892
0
LINE
8
BLACK
6
CONTINUOUS
10
202.051132999999993
20
-118.2322009999999892
11
202.051132999999993
21
-117.0322010000000006
0
LINE
8
BLACK
6
CONTINUOUS
10
202.051132999999993
20
-117.0322010000000006
11
203.8511330000000044
21
-117.0322010000000006
0
LINE
8
BLACK
6
CONTINUOUS
10
203.8511330000000044
20
-117.0322010000000006
11
203.8511330000000044
21
-118.2322009999999892
0
LINE
8
BLACK
6
CONTINUOUS
10
211.8511330000000044
20
-118.2322009999999892
11
210.051132999999993
21
-118.2322009999999892
0
LINE
8
BLACK
6
CONTINUOUS
10
210.051132999999993
20
-118.2322009999999892
11
210.051132999999993
21
-117.0322010000000006
0
LINE
8
BLACK
6
CONTINUOUS
10
210.051132999999993
20
-117.0322010000000006
11
211.8511330000000044
21
-117.0322010000000006
0
LINE
8
BLACK
6
CONTINUOUS
10
211.8511330000000044
20
-117.0322010000000006
11
211.8511330000000044
21
-118.2322009999999892
0
LINE
8
BLACK
6
CONTINUOUS
10
219.8511329999999759
20
-118.2322009999999892
11
218.051132999999993
21
-118.2322009999999892
0
LINE
8
BLACK
6
CONTINUOUS
10
218.051132999999993
20
-118.2322009999999892
11
218.051132999999993
21
-117.0322010000000006
0
LINE
8
BLACK
6
CONTINUOUS
10
218.051132999999993
20
-117.0322010000000006
11
219.8511329999999759
21
-117.0322010000000006
0
LINE
8
BLACK
6
CONTINUOUS
10
219.8511329999999759
20
-117.0322010000000006
11
219.8511329999999759
21
-118.2322009999999892
0
LINE
8
BLACK
6
CONTINUOUS
10
165.6610230000000001
20
-117.3483789999999942
11
165.7096860000000049
21
-117.3808949999999953
0
LINE
8
BLACK
6
CONTINUOUS
10
165.7096860000000049
20
-117.3808949999999953
11
165.7422019999999918
21
-117.4295580000000001
0
LINE
8
BLACK
6
CONTINUOUS
10
165.7422019999999918
20
-117.4295580000000001
11
165.7536199999999837
21
-117.4869609999999938
0
LINE
8
BLACK
6
CONTINUOUS
10
165.7536199999999837
20
-117.4869609999999938
11
165.7536199999999837
21
-117.7869609999999909
0
LINE
8
BLACK
6
CONTINUOUS
10
165.7536199999999837
20
-117.7869609999999909
11
165.7422019999999918
21
-117.8443639999999988
0
LINE
8
BLACK
6
CONTINUOUS
10
165.7422019999999918
20
-117.8443639999999988
11
165.7096860000000049
21
-117.8930269999999894
0
LINE
8
BLACK
6
CONTINUOUS
10
165.7096860000000049
20
-117.8930269999999894
11
165.6610230000000001
21
-117.9255429999999905
0
LINE
8
BLACK
6
CONTINUOUS
10
165.6610230000000001
20
-117.9255429999999905
11
165.6036200000000065
21
-117.9369609999999966
0
LINE
8
BLACK
6
CONTINUOUS
10
165.6036200000000065
20
-117.9369609999999966
11
164.4286199999999951
21
-117.9369609999999966
0
LINE
8
BLACK
6
CONTINUOUS
10
164.4286199999999951
20
-117.9369609999999966
11
164.3712170000000015
21
-117.9255429999999905
0
LINE
8
BLACK
6
CONTINUOUS
10
164.3712170000000015
20
-117.9255429999999905
11
164.3225539999999967
21
-117.8930269999999894
0
LINE
8
BLACK
6
CONTINUOUS
10
164.3225539999999967
20
-117.8930269999999894
11
164.2900379999999814
21
-117.8443639999999988
0
LINE
8
BLACK
6
CONTINUOUS
10
164.2900379999999814
20
-117.8443639999999988
11
164.2786199999999894
21
-117.7869609999999909
0
LINE
8
BLACK
6
CONTINUOUS
10
164.2786199999999894
20
-117.7869609999999909
11
164.2786199999999894
21
-117.4869609999999938
0
LINE
8
BLACK
6
CONTINUOUS
10
164.2786199999999894
20
-117.4869609999999938
11
164.2900379999999814
21
-117.4295580000000001
0
LINE
8
BLACK
6
CONTINUOUS
10
164.2900379999999814
20
-117.4295580000000001
11
164.3225539999999967
21
-117.3808949999999953
0
LINE
8
BLACK
6
CONTINUOUS
10
164.3225539999999967
20
-117.3808949999999953
11
164.3712170000000015
21
-117.3483789999999942
0
LINE
8
BLACK
6
CONTINUOUS
10
164.3712170000000015
20
-117.3483789999999942
11
164.4286199999999951
21
-117.3369609999999881
0
LINE
8
BLACK
6
CONTINUOUS
10
164.4286199999999951
20
-117.3369609999999881
11
165.6036200000000065
21
-117.3369609999999881
0
LINE
8
BLACK
6
CONTINUOUS
10
165.6036200000000065
20
-117.3369609999999881
11
165.6610230000000001
21
-117.3483789999999942
0
LINE
8
BLACK
6
CONTINUOUS
10
161.5638040000000046
20
-116.8987969999999876
11
161.6286879999999826
21
-116.942151999999993
0
LINE
8
BLACK
6
CONTINUOUS
10
161.6286879999999826
20
-116.942151999999993
11
161.6720430000000022
21
-117.0070359999999994
0
LINE
8
BLACK
6
CONTINUOUS
10
161.6720430000000022
20
-117.0070359999999994
11
161.6872669999999914
21
-117.0835730000000012
0
LINE
8
BLACK
6
CONTINUOUS
10
161.6872669999999914
20
-117.0835730000000012
11
161.6872669999999914
21
-117.4835729999999927
0
LINE
8
BLACK
6
CONTINUOUS
10
161.6872669999999914
20
-117.4835729999999927
11
161.6720430000000022
21
-117.5601099999999946
0
LINE
8
BLACK
6
CONTINUOUS
10
161.6720430000000022
20
-117.5601099999999946
11
161.6286879999999826
21
-117.6249940000000009
0
LINE
8
BLACK
6
CONTINUOUS
10
161.6286879999999826
20
-117.6249940000000009
11
161.5638040000000046
21
-117.6683489999999921
0
LINE
8
BLACK
6
CONTINUOUS
10
161.5638040000000046
20
-117.6683489999999921
11
161.4872670000000028
21
-117.6835729999999955
0
LINE
8
BLACK
6
CONTINUOUS
10
161.4872670000000028
20
-117.6835729999999955
11
160.9372669999999914
21
-117.6835729999999955
0
LINE
8
BLACK
6
CONTINUOUS
10
160.9372669999999914
20
-117.6835729999999955
11
160.8607299999999896
21
-117.6683489999999921
0
LINE
8
BLACK
6
CONTINUOUS
10
160.8607299999999896
20
-117.6683489999999921
11
160.7958459999999832
21
-117.6249940000000009
0
LINE
8
BLACK
6
CONTINUOUS
10
160.7958459999999832
20
-117.6249940000000009
11
160.752490999999992
21
-117.5601099999999946
0
LINE
8
BLACK
6
CONTINUOUS
10
160.752490999999992
20
-117.5601099999999946
11
160.7372670000000028
21
-117.4835729999999927
0
LINE
8
BLACK
6
CONTINUOUS
10
160.7372670000000028
20
-117.4835729999999927
11
160.7372670000000028
21
-117.0835730000000012
0
LINE
8
BLACK
6
CONTINUOUS
10
160.7372670000000028
20
-117.0835730000000012
11
160.752490999999992
21
-117.0070359999999994
0
LINE
8
BLACK
6
CONTINUOUS
10
160.752490999999992
20
-117.0070359999999994
11
160.7958459999999832
21
-116.942151999999993
0
LINE
8
BLACK
6
CONTINUOUS
10
160.7958459999999832
20
-116.942151999999993
11
160.8607299999999896
21
-116.8987969999999876
0
LINE
8
BLACK
6
CONTINUOUS
10
160.8607299999999896
20
-116.8987969999999876
11
160.9372669999999914
21
-116.8835729999999984
0
LINE
8
BLACK
6
CONTINUOUS
10
160.9372669999999914
20
-116.8835729999999984
11
161.4872670000000028
21
-116.8835729999999984
0
LINE
8
BLACK
6
CONTINUOUS
10
161.4872670000000028
20
-116.8835729999999984
11
161.5638040000000046
21
-116.8987969999999876
0
LINE
8
BLACK
6
CONTINUOUS
10
158.4139480000000049
20
-116.958999999999989
11
158.4463910000000055
21
-116.980677
0
LINE
8
BLACK
6
CONTINUOUS
10
158.4463910000000055
20
-116.980677
11
158.4680679999999882
21
-117.0131200000000007
0
LINE
8
BLACK
6
CONTINUOUS
10
158.4680679999999882
20
-117.0131200000000007
11
158.4756799999999828
21
-117.0513879999999887
0
LINE
8
BLACK
6
CONTINUOUS
10
158.4756799999999828
20
-117.0513879999999887
11
158.4756799999999828
21
-117.5013879999999915
0
LINE
8
BLACK
6
CONTINUOUS
10
158.4756799999999828
20
-117.5013879999999915
11
158.4680679999999882
21
-117.5396559999999937
0
LINE
8
BLACK
6
CONTINUOUS
10
158.4680679999999882
20
-117.5396559999999937
11
158.4463910000000055
21
-117.5720989999999944
0
LINE
8
BLACK
6
CONTINUOUS
10
158.4463910000000055
20
-117.5720989999999944
11
158.4139480000000049
21
-117.5937759999999912
0
LINE
8
BLACK
6
CONTINUOUS
10
158.4139480000000049
20
-117.5937759999999912
11
158.3756799999999885
21
-117.601388
0
LINE
8
BLACK
6
CONTINUOUS
10
158.3756799999999885
20
-117.601388
11
158.1756799999999998
21
-117.601388
0
LINE
8
BLACK
6
CONTINUOUS
10
158.1756799999999998
20
-117.601388
11
158.1374119999999834
21
-117.5937759999999912
0
LINE
8
BLACK
6
CONTINUOUS
10
158.1374119999999834
20
-117.5937759999999912
11
158.1049689999999828
21
-117.5720989999999944
0
LINE
8
BLACK
6
CONTINUOUS
10
158.1049689999999828
20
-117.5720989999999944
11
158.0832920000000001
21
-117.5396559999999937
0
LINE
8
BLACK
6
CONTINUOUS
10
158.0832920000000001
20
-117.5396559999999937
11
158.0756800000000055
21
-117.5013879999999915
0
LINE
8
BLACK
6
CONTINUOUS
10
158.0756800000000055
20
-117.5013879999999915
11
158.0756800000000055
21
-117.0513879999999887
0
LINE
8
BLACK
6
CONTINUOUS
10
158.0756800000000055
20
-117.0513879999999887
11
158.0832920000000001
21
-117.0131200000000007
0
LINE
8
BLACK
6
CONTINUOUS
10
158.0832920000000001
20
-117.0131200000000007
11
158.1049689999999828
21
-116.980677
0
LINE
8
BLACK
6
CONTINUOUS
10
158.1049689999999828
20
-116.980677
11
158.1374119999999834
21
-116.958999999999989
0
LINE
8
BLACK
6
CONTINUOUS
10
158.1374119999999834
20
-116.958999999999989
11
158.1756799999999998
21
-116.9513879999999943
0
LINE
8
BLACK
6
CONTINUOUS
10
158.1756799999999998
20
-116.9513879999999943
11
158.3756799999999885
21
-116.9513879999999943
0
LINE
8
BLACK
6
CONTINUOUS
10
158.3756799999999885
20
-116.9513879999999943
11
158.4139480000000049
21
-116.958999999999989
0
LINE
8
BLACK
6
CONTINUOUS
10
159.0639479999999821
20
-116.958999999999989
11
159.0963909999999828
21
-116.980677
0
LINE
8
BLACK
6
CONTINUOUS
10
159.0963909999999828
20
-116.980677
11
159.1180679999999938
21
-117.0131200000000007
0
LINE
8
BLACK
6
CONTINUOUS
10
159.1180679999999938
20
-117.0131200000000007
11
159.1256799999999885
21
-117.0513879999999887
0
LINE
8
BLACK
6
CONTINUOUS
10
159.1256799999999885
20
-117.0513879999999887
11
159.1256799999999885
21
-117.5013879999999915
0
LINE
8
BLACK
6
CONTINUOUS
10
159.1256799999999885
20
-117.5013879999999915
11
159.1180679999999938
21
-117.5396559999999937
0
LINE
8
BLACK
6
CONTINUOUS
10
159.1180679999999938
20
-117.5396559999999937
11
159.0963909999999828
21
-117.5720989999999944
0
LINE
8
BLACK
6
CONTINUOUS
10
159.0963909999999828
20
-117.5720989999999944
11
159.0639479999999821
21
-117.5937759999999912
0
LINE
8
BLACK
6
CONTINUOUS
10
159.0639479999999821
20
-117.5937759999999912
11
159.0256799999999942
21
-117.601388
0
LINE
8
BLACK
6
CONTINUOUS
10
159.0256799999999942
20
-117.601388
11
158.8256800000000055
21
-117.601388
0
LINE
8
BLACK
6
CONTINUOUS
10
158.8256800000000055
20
-117.601388
11
158.7874119999999891
21
-117.5937759999999912
0
LINE
8
BLACK
6
CONTINUOUS
10
158.7874119999999891
20
-117.5937759999999912
11
158.7549689999999885
21
-117.5720989999999944
0
LINE
8
BLACK
6
CONTINUOUS
10
158.7549689999999885
20
-117.5720989999999944
11
158.7332920000000058
21
-117.5396559999999937
0
LINE
8
BLACK
6
CONTINUOUS
10
158.7332920000000058
20
-117.5396559999999937
11
158.7256799999999828
21
-117.5013879999999915
0
LINE
8
BLACK
6
CONTINUOUS
10
158.7256799999999828
20
-117.5013879999999915
11
158.7256799999999828
21
-117.0513879999999887
0
LINE
8
BLACK
6
CONTINUOUS
10
158.7256799999999828
20
-117.0513879999999887
11
158.7332920000000058
21
-117.0131200000000007
0
LINE
8
BLACK
6
CONTINUOUS
10
158.7332920000000058
20
-117.0131200000000007
11
158.7549689999999885
21
-116.980677
0
LINE
8
BLACK
6
CONTINUOUS
10
158.7549689999999885
20
-116.980677
11
158.7874119999999891
21
-116.958999999999989
0
LINE
8
BLACK
6
CONTINUOUS
10
158.7874119999999891
20
-116.958999999999989
11
158.8256800000000055
21
-116.9513879999999943
0
LINE
8
BLACK
6
CONTINUOUS
10
158.8256800000000055
20
-116.9513879999999943
11
159.0256799999999942
21
-116.9513879999999943
0
LINE
8
BLACK
6
CONTINUOUS
10
159.0256799999999942
20
-116.9513879999999943
11
159.0639479999999821
21
-116.958999999999989
0
LINE
8
BLACK
6
CONTINUOUS
10
159.7139479999999878
20
-116.958999999999989
11
159.7463909999999885
21
-116.980677
0
LINE
8
BLACK
6
CONTINUOUS
10
159.7463909999999885
20
-116.980677
11
159.7680679999999995
21
-117.0131200000000007
0
LINE
8
BLACK
6
CONTINUOUS
10
159.7680679999999995
20
-117.0131200000000007
11
159.7756799999999942
21
-117.0513879999999887
0
LINE
8
BLACK
6
CONTINUOUS
10
159.7756799999999942
20
-117.0513879999999887
11
159.7756799999999942
21
-117.5013879999999915
0
LINE
8
BLACK
6
CONTINUOUS
10
159.7756799999999942
20
-117.5013879999999915
11
159.7680679999999995
21
-117.5396559999999937
0
LINE
8
BLACK
6
CONTINUOUS
10
159.7680679999999995
20
-117.5396559999999937
11
159.7463909999999885
21
-117.5720989999999944
0
LINE
8
BLACK
6
CONTINUOUS
10
159.7463909999999885
20
-117.5720989999999944
11
159.7139479999999878
21
-117.5937759999999912
0
LINE
8
BLACK
6
CONTINUOUS
10
159.7139479999999878
20
-117.5937759999999912
11
159.6756799999999998
21
-117.601388
0
LINE
8
BLACK
6
CONTINUOUS
10
159.6756799999999998
20
-117.601388
11
159.4756799999999828
21
-117.601388
0
LINE
8
BLACK
6
CONTINUOUS
10
159.4756799999999828
20
-117.601388
11
159.4374119999999948
21
-117.5937759999999912
0
LINE
8
BLACK
6
CONTINUOUS
10
159.4374119999999948
20
-117.5937759999999912
11
159.4049689999999941
21
-117.5720989999999944
0
LINE
8
BLACK
6
CONTINUOUS
10
159.4049689999999941
20
-117.5720989999999944
11
159.3832919999999831
21
-117.5396559999999937
0
LINE
8
BLACK
6
CONTINUOUS
10
159.3832919999999831
20
-117.5396559999999937
11
159.3756799999999885
21
-117.5013879999999915
0
LINE
8
BLACK
6
CONTINUOUS
10
159.3756799999999885
20
-117.5013879999999915
11
159.3756799999999885
21
-117.0513879999999887
0
LINE
8
BLACK
6
CONTINUOUS
10
159.3756799999999885
20
-117.0513879999999887
11
159.3832919999999831
21
-117.0131200000000007
0
LINE
8
BLACK
6
CONTINUOUS
10
159.3832919999999831
20
-117.0131200000000007
11
159.4049689999999941
21
-116.980677
0
LINE
8
BLACK
6
CONTINUOUS
10
159.4049689999999941
20
-116.980677
11
159.4374119999999948
21
-116.958999999999989
0
LINE
8
BLACK
6
CONTINUOUS
10
159.4374119999999948
20
-116.958999999999989
11
159.4756799999999828
21
-116.9513879999999943
0
LINE
8
BLACK
6
CONTINUOUS
10
159.4756799999999828
20
-116.9513879999999943
11
159.6756799999999998
21
-116.9513879999999943
0
LINE
8
BLACK
6
CONTINUOUS
10
159.6756799999999998
20
-116.9513879999999943
11
159.7139479999999878
21
-116.958999999999989
0
LINE
8
BLACK
6
CONTINUOUS
10
154.9182529999999929
20
-116.3702869999999905
11
154.9912479999999846
21
-116.4190609999999992
0
LINE
8
BLACK
6
CONTINUOUS
10
154.9912479999999846
20
-116.4190609999999992
11
155.0400219999999933
21
-116.4920559999999909
0
LINE
8
BLACK
6
CONTINUOUS
10
155.0400219999999933
20
-116.4920559999999909
11
155.0571489999999812
21
-116.5781599999999969
0
LINE
8
BLACK
6
CONTINUOUS
10
155.0571489999999812
20
-116.5781599999999969
11
155.0571489999999812
21
-117.0781599999999969
0
LINE
8
BLACK
6
CONTINUOUS
10
155.0571489999999812
20
-117.0781599999999969
11
155.0400219999999933
21
-117.1642639999999886
0
LINE
8
BLACK
6
CONTINUOUS
10
155.0400219999999933
20
-117.1642639999999886
11
154.9912479999999846
21
-117.2372589999999946
0
LINE
8
BLACK
6
CONTINUOUS
10
154.9912479999999846
20
-117.2372589999999946
11
154.9182529999999929
21
-117.2860329999999891
0
LINE
8
BLACK
6
CONTINUOUS
10
154.9182529999999929
20
-117.2860329999999891
11
154.8321489999999869
21
-117.3031599999999912
0
LINE
8
BLACK
6
CONTINUOUS
10
154.8321489999999869
20
-117.3031599999999912
11
154.3821489999999983
21
-117.3031599999999912
0
LINE
8
BLACK
6
CONTINUOUS
10
154.3821489999999983
20
-117.3031599999999912
11
154.2960449999999923
21
-117.2860329999999891
0
LINE
8
BLACK
6
CONTINUOUS
10
154.2960449999999923
20
-117.2860329999999891
11
154.2230500000000006
21
-117.2372589999999946
0
LINE
8
BLACK
6
CONTINUOUS
10
154.2230500000000006
20
-117.2372589999999946
11
154.1742759999999919
21
-117.1642639999999886
0
LINE
8
BLACK
6
CONTINUOUS
10
154.1742759999999919
20
-117.1642639999999886
11
154.157149000000004
21
-117.0781599999999969
0
LINE
8
BLACK
6
CONTINUOUS
10
154.157149000000004
20
-117.0781599999999969
11
154.157149000000004
21
-116.5781599999999969
0
LINE
8
BLACK
6
CONTINUOUS
10
154.157149000000004
20
-116.5781599999999969
11
154.1742759999999919
21
-116.4920559999999909
0
LINE
8
BLACK
6
CONTINUOUS
10
154.1742759999999919
20
-116.4920559999999909
11
154.2230500000000006
21
-116.4190609999999992
0
LINE
8
BLACK
6
CONTINUOUS
10
154.2230500000000006
20
-116.4190609999999992
11
154.2960449999999923
21
-116.3702869999999905
0
LINE
8
BLACK
6
CONTINUOUS
10
154.2960449999999923
20
-116.3702869999999905
11
154.3821489999999983
21
-116.3531599999999884
0
LINE
8
BLACK
6
CONTINUOUS
10
154.3821489999999983
20
-116.3531599999999884
11
154.8321489999999869
21
-116.3531599999999884
0
LINE
8
BLACK
6
CONTINUOUS
10
154.8321489999999869
20
-116.3531599999999884
11
154.9182529999999929
21
-116.3702869999999905
0
LINE
8
BLACK
6
CONTINUOUS
10
156.4682530000000042
20
-116.3702869999999905
11
156.541247999999996
21
-116.4190609999999992
0
LINE
8
BLACK
6
CONTINUOUS
10
156.541247999999996
20
-116.4190609999999992
11
156.5900220000000047
21
-116.4920559999999909
0
LINE
8
BLACK
6
CONTINUOUS
10
156.5900220000000047
20
-116.4920559999999909
11
156.6071489999999926
21
-116.5781599999999969
0
LINE
8
BLACK
6
CONTINUOUS
10
156.6071489999999926
20
-116.5781599999999969
11
156.6071489999999926
21
-117.0781599999999969
0
LINE
8
BLACK
6
CONTINUOUS
10
156.6071489999999926
20
-117.0781599999999969
11
156.5900220000000047
21
-117.1642639999999886
0
LINE
8
BLACK
6
CONTINUOUS
10
156.5900220000000047
20
-117.1642639999999886
11
156.541247999999996
21
-117.2372589999999946
0
LINE
8
BLACK
6
CONTINUOUS
10
156.541247999999996
20
-117.2372589999999946
11
156.4682530000000042
21
-117.2860329999999891
0
LINE
8
BLACK
6
CONTINUOUS
10
156.4682530000000042
20
-117.2860329999999891
11
156.3821489999999983
21
-117.3031599999999912
0
LINE
8
BLACK
6
CONTINUOUS
10
156.3821489999999983
20
-117.3031599999999912
11
155.9321489999999812
21
-117.3031599999999912
0
LINE
8
BLACK
6
CONTINUOUS
10
155.9321489999999812
20
-117.3031599999999912
11
155.8460450000000037
21
-117.2860329999999891
0
LINE
8
BLACK
6
CONTINUOUS
10
155.8460450000000037
20
-117.2860329999999891
11
155.7730499999999836
21
-117.2372589999999946
0
LINE
8
BLACK
6
CONTINUOUS
10
155.7730499999999836
20
-117.2372589999999946
11
155.7242760000000033
21
-117.1642639999999886
0
LINE
8
BLACK
6
CONTINUOUS
10
155.7242760000000033
20
-117.1642639999999886
11
155.7071489999999869
21
-117.0781599999999969
0
LINE
8
BLACK
6
CONTINUOUS
10
155.7071489999999869
20
-117.0781599999999969
11
155.7071489999999869
21
-116.5781599999999969
0
LINE
8
BLACK
6
CONTINUOUS
10
155.7071489999999869
20
-116.5781599999999969
11
155.7242760000000033
21
-116.4920559999999909
0
LINE
8
BLACK
6
CONTINUOUS
10
155.7242760000000033
20
-116.4920559999999909
11
155.7730499999999836
21
-116.4190609999999992
0
LINE
8
BLACK
6
CONTINUOUS
10
155.7730499999999836
20
-116.4190609999999992
11
155.8460450000000037
21
-116.3702869999999905
0
LINE
8
BLACK
6
CONTINUOUS
10
155.8460450000000037
20
-116.3702869999999905
11
155.9321489999999812
21
-116.3531599999999884
0
LINE
8
BLACK
6
CONTINUOUS
10
155.9321489999999812
20
-116.3531599999999884
11
156.3821489999999983
21
-116.3531599999999884
0
LINE
8
BLACK
6
CONTINUOUS
10
156.3821489999999983
20
-116.3531599999999884
11
156.4682530000000042
21
-116.3702869999999905
0
LINE
8
BLACK
6
CONTINUOUS
10
169.1753319999999974
20
-116.1025020000000012
11
169.2483269999999891
21
-116.1512759999999957
0
LINE
8
BLACK
6
CONTINUOUS
10
169.2483269999999891
20
-116.1512759999999957
11
169.2971009999999978
21
-116.2242710000000017
0
LINE
8
BLACK
6
CONTINUOUS
10
169.2971009999999978
20
-116.2242710000000017
11
169.3142279999999857
21
-116.3103749999999934
0
LINE
8
BLACK
6
CONTINUOUS
10
169.3142279999999857
20
-116.3103749999999934
11
169.3142279999999857
21
-116.8103749999999934
0
LINE
8
BLACK
6
CONTINUOUS
10
169.3142279999999857
20
-116.8103749999999934
11
169.2971009999999978
21
-116.8964789999999994
0
LINE
8
BLACK
6
CONTINUOUS
10
169.2971009999999978
20
-116.8964789999999994
11
169.2483269999999891
21
-116.9694739999999911
0
LINE
8
BLACK
6
CONTINUOUS
10
169.2483269999999891
20
-116.9694739999999911
11
169.1753319999999974
21
-117.0182479999999998
0
LINE
8
BLACK
6
CONTINUOUS
10
169.1753319999999974
20
-117.0182479999999998
11
169.0892279999999914
21
-117.0353749999999877
0
LINE
8
BLACK
6
CONTINUOUS
10
169.0892279999999914
20
-117.0353749999999877
11
168.6392280000000028
21
-117.0353749999999877
0
LINE
8
BLACK
6
CONTINUOUS
10
168.6392280000000028
20
-117.0353749999999877
11
168.5531239999999968
21
-117.0182479999999998
0
LINE
8
BLACK
6
CONTINUOUS
10
168.5531239999999968
20
-117.0182479999999998
11
168.4801290000000051
21
-116.9694739999999911
0
LINE
8
BLACK
6
CONTINUOUS
10
168.4801290000000051
20
-116.9694739999999911
11
168.4313549999999964
21
-116.8964789999999994
0
LINE
8
BLACK
6
CONTINUOUS
10
168.4313549999999964
20
-116.8964789999999994
11
168.4142279999999801
21
-116.8103749999999934
0
LINE
8
BLACK
6
CONTINUOUS
10
168.4142279999999801
20
-116.8103749999999934
11
168.4142279999999801
21
-116.3103749999999934
0
LINE
8
BLACK
6
CONTINUOUS
10
168.4142279999999801
20
-116.3103749999999934
11
168.4313549999999964
21
-116.2242710000000017
0
LINE
8
BLACK
6
CONTINUOUS
10
168.4313549999999964
20
-116.2242710000000017
11
168.4801290000000051
21
-116.1512759999999957
0
LINE
8
BLACK
6
CONTINUOUS
10
168.4801290000000051
20
-116.1512759999999957
11
168.5531239999999968
21
-116.1025020000000012
0
LINE
8
BLACK
6
CONTINUOUS
10
168.5531239999999968
20
-116.1025020000000012
11
168.6392280000000028
21
-116.0853749999999991
0
LINE
8
BLACK
6
CONTINUOUS
10
168.6392280000000028
20
-116.0853749999999991
11
169.0892279999999914
21
-116.0853749999999991
0
LINE
8
BLACK
6
CONTINUOUS
10
169.0892279999999914
20
-116.0853749999999991
11
169.1753319999999974
21
-116.1025020000000012
0
LINE
8
BLACK
6
CONTINUOUS
10
170.7253319999999803
20
-116.1025020000000012
11
170.7983270000000005
21
-116.1512759999999957
0
LINE
8
BLACK
6
CONTINUOUS
10
170.7983270000000005
20
-116.1512759999999957
11
170.8471009999999808
21
-116.2242710000000017
0
LINE
8
BLACK
6
CONTINUOUS
10
170.8471009999999808
20
-116.2242710000000017
11
170.8642279999999971
21
-116.3103749999999934
0
LINE
8
BLACK
6
CONTINUOUS
10
170.8642279999999971
20
-116.3103749999999934
11
170.8642279999999971
21
-116.8103749999999934
0
LINE
8
BLACK
6
CONTINUOUS
10
170.8642279999999971
20
-116.8103749999999934
11
170.8471009999999808
21
-116.8964789999999994
0
LINE
8
BLACK
6
CONTINUOUS
10
170.8471009999999808
20
-116.8964789999999994
11
170.7983270000000005
21
-116.9694739999999911
0
LINE
8
BLACK
6
CONTINUOUS
10
170.7983270000000005
20
-116.9694739999999911
11
170.7253319999999803
21
-117.0182479999999998
0
LINE
8
BLACK
6
CONTINUOUS
10
170.7253319999999803
20
-117.0182479999999998
11
170.6392280000000028
21
-117.0353749999999877
0
LINE
8
BLACK
6
CONTINUOUS
10
170.6392280000000028
20
-117.0353749999999877
11
170.1892279999999857
21
-117.0353749999999877
0
LINE
8
BLACK
6
CONTINUOUS
10
170.1892279999999857
20
-117.0353749999999877
11
170.1031239999999798
21
-117.0182479999999998
0
LINE
8
BLACK
6
CONTINUOUS
10
170.1031239999999798
20
-117.0182479999999998
11
170.0301289999999881
21
-116.9694739999999911
0
LINE
8
BLACK
6
CONTINUOUS
10
170.0301289999999881
20
-116.9694739999999911
11
169.9813549999999793
21
-116.8964789999999994
0
LINE
8
BLACK
6
CONTINUOUS
10
169.9813549999999793
20
-116.8964789999999994
11
169.9642279999999914
21
-116.8103749999999934
0
LINE
8
BLACK
6
CONTINUOUS
10
169.9642279999999914
20
-116.8103749999999934
11
169.9642279999999914
21
-116.3103749999999934
0
LINE
8
BLACK
6
CONTINUOUS
10
169.9642279999999914
20
-116.3103749999999934
11
169.9813549999999793
21
-116.2242710000000017
0
LINE
8
BLACK
6
CONTINUOUS
10
169.9813549999999793
20
-116.2242710000000017
11
170.0301289999999881
21
-116.1512759999999957
0
LINE
8
BLACK
6
CONTINUOUS
10
170.0301289999999881
20
-116.1512759999999957
11
170.1031239999999798
21
-116.1025020000000012
0
LINE
8
BLACK
6
CONTINUOUS
10
170.1031239999999798
20
-116.1025020000000012
11
170.1892279999999857
21
-116.0853749999999991
0
LINE
8
BLACK
6
CONTINUOUS
10
170.1892279999999857
20
-116.0853749999999991
11
170.6392280000000028
21
-116.0853749999999991
0
LINE
8
BLACK
6
CONTINUOUS
10
170.6392280000000028
20
-116.0853749999999991
11
170.7253319999999803
21
-116.1025020000000012
0
LINE
8
BLACK
6
CONTINUOUS
10
163.7860230000000001
20
-116.3983789999999914
11
163.8346860000000049
21
-116.4308949999999925
0
LINE
8
BLACK
6
CONTINUOUS
10
163.8346860000000049
20
-116.4308949999999925
11
163.8672019999999918
21
-116.4795579999999973
0
LINE
8
BLACK
6
CONTINUOUS
10
163.8672019999999918
20
-116.4795579999999973
11
163.8786199999999837
21
-116.5369609999999909
0
LINE
8
BLACK
6
CONTINUOUS
10
163.8786199999999837
20
-116.5369609999999909
11
163.8786199999999837
21
-116.8369609999999881
0
LINE
8
BLACK
6
CONTINUOUS
10
163.8786199999999837
20
-116.8369609999999881
11
163.8672019999999918
21
-116.8943639999999959
0
LINE
8
BLACK
6
CONTINUOUS
10
163.8672019999999918
20
-116.8943639999999959
11
163.8346860000000049
21
-116.9430270000000007
0
LINE
8
BLACK
6
CONTINUOUS
10
163.8346860000000049
20
-116.9430270000000007
11
163.7860230000000001
21
-116.9755429999999876
0
LINE
8
BLACK
6
CONTINUOUS
10
163.7860230000000001
20
-116.9755429999999876
11
163.7286200000000065
21
-116.9869609999999938
0
LINE
8
BLACK
6
CONTINUOUS
10
163.7286200000000065
20
-116.9869609999999938
11
162.5536199999999951
21
-116.9869609999999938
0
LINE
8
BLACK
6
CONTINUOUS
10
162.5536199999999951
20
-116.9869609999999938
11
162.4962170000000015
21
-116.9755429999999876
0
LINE
8
BLACK
6
CONTINUOUS
10
162.4962170000000015
20
-116.9755429999999876
11
162.4475539999999967
21
-116.9430270000000007
0
LINE
8
BLACK
6
CONTINUOUS
10
162.4475539999999967
20
-116.9430270000000007
11
162.4150379999999814
21
-116.8943639999999959
0
LINE
8
BLACK
6
CONTINUOUS
10
162.4150379999999814
20
-116.8943639999999959
11
162.4036199999999894
21
-116.8369609999999881
0
LINE
8
BLACK
6
CONTINUOUS
10
162.4036199999999894
20
-116.8369609999999881
11
162.4036199999999894
21
-116.5369609999999909
0
LINE
8
BLACK
6
CONTINUOUS
10
162.4036199999999894
20
-116.5369609999999909
11
162.4150379999999814
21
-116.4795579999999973
0
LINE
8
BLACK
6
CONTINUOUS
10
162.4150379999999814
20
-116.4795579999999973
11
162.4475539999999967
21
-116.4308949999999925
0
LINE
8
BLACK
6
CONTINUOUS
10
162.4475539999999967
20
-116.4308949999999925
11
162.4962170000000015
21
-116.3983789999999914
0
LINE
8
BLACK
6
CONTINUOUS
10
162.4962170000000015
20
-116.3983789999999914
11
162.5536199999999951
21
-116.3869609999999994
0
LINE
8
BLACK
6
CONTINUOUS
10
162.5536199999999951
20
-116.3869609999999994
11
163.7286200000000065
21
-116.3869609999999994
0
LINE
8
BLACK
6
CONTINUOUS
10
163.7286200000000065
20
-116.3869609999999994
11
163.7860230000000001
21
-116.3983789999999914
0
LINE
8
BLACK
6
CONTINUOUS
10
178.9767159999999819
20
-115.9387739999999951
11
179.0415999999999883
21
-115.9821290000000005
0
LINE
8
BLACK
6
CONTINUOUS
10
179.0415999999999883
20
-115.9821290000000005
11
179.0849549999999795
21
-116.0470129999999926
0
LINE
8
BLACK
6
CONTINUOUS
10
179.0849549999999795
20
-116.0470129999999926
11
179.1001789999999971
21
-116.1235499999999945
0
LINE
8
BLACK
6
CONTINUOUS
10
179.1001789999999971
20
-116.1235499999999945
11
179.1001789999999971
21
-116.6735499999999917
0
LINE
8
BLACK
6
CONTINUOUS
10
179.1001789999999971
20
-116.6735499999999917
11
179.0849549999999795
21
-116.7500869999999935
0
LINE
8
BLACK
6
CONTINUOUS
10
179.0849549999999795
20
-116.7500869999999935
11
179.0415999999999883
21
-116.8149709999999999
0
LINE
8
BLACK
6
CONTINUOUS
10
179.0415999999999883
20
-116.8149709999999999
11
178.9767159999999819
21
-116.858325999999991
0
LINE
8
BLACK
6
CONTINUOUS
10
178.9767159999999819
20
-116.858325999999991
11
178.9001789999999801
21
-116.8735499999999945
0
LINE
8
BLACK
6
CONTINUOUS
10
178.9001789999999801
20
-116.8735499999999945
11
178.5001790000000028
21
-116.8735499999999945
0
LINE
8
BLACK
6
CONTINUOUS
10
178.5001790000000028
20
-116.8735499999999945
11
178.423642000000001
21
-116.858325999999991
0
LINE
8
BLACK
6
CONTINUOUS
10
178.423642000000001
20
-116.858325999999991
11
178.3587579999999946
21
-116.8149709999999999
0
LINE
8
BLACK
6
CONTINUOUS
10
178.3587579999999946
20
-116.8149709999999999
11
178.3154030000000034
21
-116.7500869999999935
0
LINE
8
BLACK
6
CONTINUOUS
10
178.3154030000000034
20
-116.7500869999999935
11
178.3001789999999858
21
-116.6735499999999917
0
LINE
8
BLACK
6
CONTINUOUS
10
178.3001789999999858
20
-116.6735499999999917
11
178.3001789999999858
21
-116.1235499999999945
0
LINE
8
BLACK
6
CONTINUOUS
10
178.3001789999999858
20
-116.1235499999999945
11
178.3154030000000034
21
-116.0470129999999926
0
LINE
8
BLACK
6
CONTINUOUS
10
178.3154030000000034
20
-116.0470129999999926
11
178.3587579999999946
21
-115.9821290000000005
0
LINE
8
BLACK
6
CONTINUOUS
10
178.3587579999999946
20
-115.9821290000000005
11
178.423642000000001
21
-115.9387739999999951
0
LINE
8
BLACK
6
CONTINUOUS
10
178.423642000000001
20
-115.9387739999999951
11
178.5001790000000028
21
-115.9235499999999917
0
LINE
8
BLACK
6
CONTINUOUS
10
178.5001790000000028
20
-115.9235499999999917
11
178.9001789999999801
21
-115.9235499999999917
0
LINE
8
BLACK
6
CONTINUOUS
10
178.9001789999999801
20
-115.9235499999999917
11
178.9767159999999819
21
-115.9387739999999951
0
LINE
8
BLACK
6
CONTINUOUS
10
180.6267159999999876
20
-115.9387739999999951
11
180.691599999999994
21
-115.9821290000000005
0
LINE
8
BLACK
6
CONTINUOUS
10
180.691599999999994
20
-115.9821290000000005
11
180.7349549999999851
21
-116.0470129999999926
0
LINE
8
BLACK
6
CONTINUOUS
10
180.7349549999999851
20
-116.0470129999999926
11
180.7501790000000028
21
-116.1235499999999945
0
LINE
8
BLACK
6
CONTINUOUS
10
180.7501790000000028
20
-116.1235499999999945
11
180.7501790000000028
21
-116.6735499999999917
0
LINE
8
BLACK
6
CONTINUOUS
10
180.7501790000000028
20
-116.6735499999999917
11
180.7349549999999851
21
-116.7500869999999935
0
LINE
8
BLACK
6
CONTINUOUS
10
180.7349549999999851
20
-116.7500869999999935
11
180.691599999999994
21
-116.8149709999999999
0
LINE
8
BLACK
6
CONTINUOUS
10
180.691599999999994
20
-116.8149709999999999
11
180.6267159999999876
21
-116.858325999999991
0
LINE
8
BLACK
6
CONTINUOUS
10
180.6267159999999876
20
-116.858325999999991
11
180.5501789999999858
21
-116.8735499999999945
0
LINE
8
BLACK
6
CONTINUOUS
10
180.5501789999999858
20
-116.8735499999999945
11
180.1501789999999801
21
-116.8735499999999945
0
LINE
8
BLACK
6
CONTINUOUS
10
180.1501789999999801
20
-116.8735499999999945
11
180.0736419999999782
21
-116.858325999999991
0
LINE
8
BLACK
6
CONTINUOUS
10
180.0736419999999782
20
-116.858325999999991
11
180.0087580000000003
21
-116.8149709999999999
0
LINE
8
BLACK
6
CONTINUOUS
10
180.0087580000000003
20
-116.8149709999999999
11
179.9654029999999807
21
-116.7500869999999935
0
LINE
8
BLACK
6
CONTINUOUS
10
179.9654029999999807
20
-116.7500869999999935
11
179.9501789999999914
21
-116.6735499999999917
0
LINE
8
BLACK
6
CONTINUOUS
10
179.9501789999999914
20
-116.6735499999999917
11
179.9501789999999914
21
-116.1235499999999945
0
LINE
8
BLACK
6
CONTINUOUS
10
179.9501789999999914
20
-116.1235499999999945
11
179.9654029999999807
21
-116.0470129999999926
0
LINE
8
BLACK
6
CONTINUOUS
10
179.9654029999999807
20
-116.0470129999999926
11
180.0087580000000003
21
-115.9821290000000005
0
LINE
8
BLACK
6
CONTINUOUS
10
180.0087580000000003
20
-115.9821290000000005
11
180.0736419999999782
21
-115.9387739999999951
0
LINE
8
BLACK
6
CONTINUOUS
10
180.0736419999999782
20
-115.9387739999999951
11
180.1501789999999801
21
-115.9235499999999917
0
LINE
8
BLACK
6
CONTINUOUS
10
180.1501789999999801
20
-115.9235499999999917
11
180.5501789999999858
21
-115.9235499999999917
0
LINE
8
BLACK
6
CONTINUOUS
10
180.5501789999999858
20
-115.9235499999999917
11
180.6267159999999876
21
-115.9387739999999951
0
LINE
8
BLACK
6
CONTINUOUS
10
182.0212829999999826
20
-115.9406769999999938
11
182.0942780000000027
21
-115.9894509999999883
0
LINE
8
BLACK
6
CONTINUOUS
10
182.0942780000000027
20
-115.9894509999999883
11
182.1430519999999831
21
-116.0624459999999942
0
LINE
8
BLACK
6
CONTINUOUS
10
182.1430519999999831
20
-116.0624459999999942
11
182.1601789999999994
21
-116.1485500000000002
0
LINE
8
BLACK
6
CONTINUOUS
10
182.1601789999999994
20
-116.1485500000000002
11
182.1601789999999994
21
-116.6485500000000002
0
LINE
8
BLACK
6
CONTINUOUS
10
182.1601789999999994
20
-116.6485500000000002
11
182.1430519999999831
21
-116.7346539999999919
0
LINE
8
BLACK
6
CONTINUOUS
10
182.1430519999999831
20
-116.7346539999999919
11
182.0942780000000027
21
-116.8076489999999978
0
LINE
8
BLACK
6
CONTINUOUS
10
182.0942780000000027
20
-116.8076489999999978
11
182.0212829999999826
21
-116.8564229999999924
0
LINE
8
BLACK
6
CONTINUOUS
10
182.0212829999999826
20
-116.8564229999999924
11
181.9351790000000051
21
-116.8735499999999945
0
LINE
8
BLACK
6
CONTINUOUS
10
181.9351790000000051
20
-116.8735499999999945
11
181.485178999999988
21
-116.8735499999999945
0
LINE
8
BLACK
6
CONTINUOUS
10
181.485178999999988
20
-116.8735499999999945
11
181.3990749999999821
21
-116.8564229999999924
0
LINE
8
BLACK
6
CONTINUOUS
10
181.3990749999999821
20
-116.8564229999999924
11
181.3260799999999904
21
-116.8076489999999978
0
LINE
8
BLACK
6
CONTINUOUS
10
181.3260799999999904
20
-116.8076489999999978
11
181.2773059999999816
21
-116.7346539999999919
0
LINE
8
BLACK
6
CONTINUOUS
10
181.2773059999999816
20
-116.7346539999999919
11
181.2601789999999937
21
-116.6485500000000002
0
LINE
8
BLACK
6
CONTINUOUS
10
181.2601789999999937
20
-116.6485500000000002
11
181.2601789999999937
21
-116.1485500000000002
0
LINE
8
BLACK
6
CONTINUOUS
10
181.2601789999999937
20
-116.1485500000000002
11
181.2773059999999816
21
-116.0624459999999942
0
LINE
8
BLACK
6
CONTINUOUS
10
181.2773059999999816
20
-116.0624459999999942
11
181.3260799999999904
21
-115.9894509999999883
0
LINE
8
BLACK
6
CONTINUOUS
10
181.3260799999999904
20
-115.9894509999999883
11
181.3990749999999821
21
-115.9406769999999938
0
LINE
8
BLACK
6
CONTINUOUS
10
181.3990749999999821
20
-115.9406769999999938
11
181.485178999999988
21
-115.9235499999999917
0
LINE
8
BLACK
6
CONTINUOUS
10
181.485178999999988
20
-115.9235499999999917
11
181.9351790000000051
21
-115.9235499999999917
0
LINE
8
BLACK
6
CONTINUOUS
10
181.9351790000000051
20
-115.9235499999999917
11
182.0212829999999826
21
-115.9406769999999938
0
LINE
8
BLACK
6
CONTINUOUS
10
183.571282999999994
20
-115.9406769999999938
11
183.6442779999999857
21
-115.9894509999999883
0
LINE
8
BLACK
6
CONTINUOUS
10
183.6442779999999857
20
-115.9894509999999883
11
183.6930519999999945
21
-116.0624459999999942
0
LINE
8
BLACK
6
CONTINUOUS
10
183.6930519999999945
20
-116.0624459999999942
11
183.7101789999999824
21
-116.1485500000000002
0
LINE
8
BLACK
6
CONTINUOUS
10
183.7101789999999824
20
-116.1485500000000002
11
183.7101789999999824
21
-116.6485500000000002
0
LINE
8
BLACK
6
CONTINUOUS
10
183.7101789999999824
20
-116.6485500000000002
11
183.6930519999999945
21
-116.7346539999999919
0
LINE
8
BLACK
6
CONTINUOUS
10
183.6930519999999945
20
-116.7346539999999919
11
183.6442779999999857
21
-116.8076489999999978
0
LINE
8
BLACK
6
CONTINUOUS
10
183.6442779999999857
20
-116.8076489999999978
11
183.571282999999994
21
-116.8564229999999924
0
LINE
8
BLACK
6
CONTINUOUS
10
183.571282999999994
20
-116.8564229999999924
11
183.485178999999988
21
-116.8735499999999945
0
LINE
8
BLACK
6
CONTINUOUS
10
183.485178999999988
20
-116.8735499999999945
11
183.0351789999999994
21
-116.8735499999999945
0
LINE
8
BLACK
6
CONTINUOUS
10
183.0351789999999994
20
-116.8735499999999945
11
182.9490749999999935
21
-116.8564229999999924
0
LINE
8
BLACK
6
CONTINUOUS
10
182.9490749999999935
20
-116.8564229999999924
11
182.8760800000000017
21
-116.8076489999999978
0
LINE
8
BLACK
6
CONTINUOUS
10
182.8760800000000017
20
-116.8076489999999978
11
182.827305999999993
21
-116.7346539999999919
0
LINE
8
BLACK
6
CONTINUOUS
10
182.827305999999993
20
-116.7346539999999919
11
182.8101790000000051
21
-116.6485500000000002
0
LINE
8
BLACK
6
CONTINUOUS
10
182.8101790000000051
20
-116.6485500000000002
11
182.8101790000000051
21
-116.1485500000000002
0
LINE
8
BLACK
6
CONTINUOUS
10
182.8101790000000051
20
-116.1485500000000002
11
182.827305999999993
21
-116.0624459999999942
0
LINE
8
BLACK
6
CONTINUOUS
10
182.827305999999993
20
-116.0624459999999942
11
182.8760800000000017
21
-115.9894509999999883
0
LINE
8
BLACK
6
CONTINUOUS
10
182.8760800000000017
20
-115.9894509999999883
11
182.9490749999999935
21
-115.9406769999999938
0
LINE
8
BLACK
6
CONTINUOUS
10
182.9490749999999935
20
-115.9406769999999938
11
183.0351789999999994
21
-115.9235499999999917
0
LINE
8
BLACK
6
CONTINUOUS
10
183.0351789999999994
20
-115.9235499999999917
11
183.485178999999988
21
-115.9235499999999917
0
LINE
8
BLACK
6
CONTINUOUS
10
183.485178999999988
20
-115.9235499999999917
11
183.571282999999994
21
-115.9406769999999938
0
LINE
8
BLACK
6
CONTINUOUS
10
165.9720409999999902
20
-115.8048089999999917
11
166.0369249999999965
21
-115.848163999999997
0
LINE
8
BLACK
6
CONTINUOUS
10
166.0369249999999965
20
-115.848163999999997
11
166.0802799999999877
21
-115.9130479999999892
0
LINE
8
BLACK
6
CONTINUOUS
10
166.0802799999999877
20
-115.9130479999999892
11
166.0955040000000054
21
-115.9895849999999911
0
LINE
8
BLACK
6
CONTINUOUS
10
166.0955040000000054
20
-115.9895849999999911
11
166.0955040000000054
21
-116.5395849999999882
0
LINE
8
BLACK
6
CONTINUOUS
10
166.0955040000000054
20
-116.5395849999999882
11
166.0802799999999877
21
-116.6161219999999901
0
LINE
8
BLACK
6
CONTINUOUS
10
166.0802799999999877
20
-116.6161219999999901
11
166.0369249999999965
21
-116.6810059999999964
0
LINE
8
BLACK
6
CONTINUOUS
10
166.0369249999999965
20
-116.6810059999999964
11
165.9720409999999902
21
-116.7243610000000018
0
LINE
8
BLACK
6
CONTINUOUS
10
165.9720409999999902
20
-116.7243610000000018
11
165.8955039999999883
21
-116.7395849999999911
0
LINE
8
BLACK
6
CONTINUOUS
10
165.8955039999999883
20
-116.7395849999999911
11
165.4955039999999826
21
-116.7395849999999911
0
LINE
8
BLACK
6
CONTINUOUS
10
165.4955039999999826
20
-116.7395849999999911
11
165.4189669999999808
21
-116.7243610000000018
0
LINE
8
BLACK
6
CONTINUOUS
10
165.4189669999999808
20
-116.7243610000000018
11
165.3540830000000028
21
-116.6810059999999964
0
LINE
8
BLACK
6
CONTINUOUS
10
165.3540830000000028
20
-116.6810059999999964
11
165.3107279999999832
21
-116.6161219999999901
0
LINE
8
BLACK
6
CONTINUOUS
10
165.3107279999999832
20
-116.6161219999999901
11
165.295503999999994
21
-116.5395849999999882
0
LINE
8
BLACK
6
CONTINUOUS
10
165.295503999999994
20
-116.5395849999999882
11
165.295503999999994
21
-115.9895849999999911
0
LINE
8
BLACK
6
CONTINUOUS
10
165.295503999999994
20
-115.9895849999999911
11
165.3107279999999832
21
-115.9130479999999892
0
LINE
8
BLACK
6
CONTINUOUS
10
165.3107279999999832
20
-115.9130479999999892
11
165.3540830000000028
21
-115.848163999999997
0
LINE
8
BLACK
6
CONTINUOUS
10
165.3540830000000028
20
-115.848163999999997
11
165.4189669999999808
21
-115.8048089999999917
0
LINE
8
BLACK
6
CONTINUOUS
10
165.4189669999999808
20
-115.8048089999999917
11
165.4955039999999826
21
-115.7895849999999882
0
LINE
8
BLACK
6
CONTINUOUS
10
165.4955039999999826
20
-115.7895849999999882
11
165.8955039999999883
21
-115.7895849999999882
0
LINE
8
BLACK
6
CONTINUOUS
10
165.8955039999999883
20
-115.7895849999999882
11
165.9720409999999902
21
-115.8048089999999917
0
LINE
8
BLACK
6
CONTINUOUS
10
167.6220409999999958
20
-115.8048089999999917
11
167.6869250000000022
21
-115.848163999999997
0
LINE
8
BLACK
6
CONTINUOUS
10
167.6869250000000022
20
-115.848163999999997
11
167.7302799999999934
21
-115.9130479999999892
0
LINE
8
BLACK
6
CONTINUOUS
10
167.7302799999999934
20
-115.9130479999999892
11
167.7455039999999826
21
-115.9895849999999911
0
LINE
8
BLACK
6
CONTINUOUS
10
167.7455039999999826
20
-115.9895849999999911
11
167.7455039999999826
21
-116.5395849999999882
0
LINE
8
BLACK
6
CONTINUOUS
10
167.7455039999999826
20
-116.5395849999999882
11
167.7302799999999934
21
-116.6161219999999901
0
LINE
8
BLACK
6
CONTINUOUS
10
167.7302799999999934
20
-116.6161219999999901
11
167.6869250000000022
21
-116.6810059999999964
0
LINE
8
BLACK
6
CONTINUOUS
10
167.6869250000000022
20
-116.6810059999999964
11
167.6220409999999958
21
-116.7243610000000018
0
LINE
8
BLACK
6
CONTINUOUS
10
167.6220409999999958
20
-116.7243610000000018
11
167.545503999999994
21
-116.7395849999999911
0
LINE
8
BLACK
6
CONTINUOUS
10
167.545503999999994
20
-116.7395849999999911
11
167.1455039999999883
21
-116.7395849999999911
0
LINE
8
BLACK
6
CONTINUOUS
10
167.1455039999999883
20
-116.7395849999999911
11
167.0689669999999865
21
-116.7243610000000018
0
LINE
8
BLACK
6
CONTINUOUS
10
167.0689669999999865
20
-116.7243610000000018
11
167.0040829999999801
21
-116.6810059999999964
0
LINE
8
BLACK
6
CONTINUOUS
10
167.0040829999999801
20
-116.6810059999999964
11
166.9607279999999889
21
-116.6161219999999901
0
LINE
8
BLACK
6
CONTINUOUS
10
166.9607279999999889
20
-116.6161219999999901
11
166.9455039999999997
21
-116.5395849999999882
0
LINE
8
BLACK
6
CONTINUOUS
10
166.9455039999999997
20
-116.5395849999999882
11
166.9455039999999997
21
-115.9895849999999911
0
LINE
8
BLACK
6
CONTINUOUS
10
166.9455039999999997
20
-115.9895849999999911
11
166.9607279999999889
21
-115.9130479999999892
0
LINE
8
BLACK
6
CONTINUOUS
10
166.9607279999999889
20
-115.9130479999999892
11
167.0040829999999801
21
-115.848163999999997
0
LINE
8
BLACK
6
CONTINUOUS
10
167.0040829999999801
20
-115.848163999999997
11
167.0689669999999865
21
-115.8048089999999917
0
LINE
8
BLACK
6
CONTINUOUS
10
167.0689669999999865
20
-115.8048089999999917
11
167.1455039999999883
21
-115.7895849999999882
0
LINE
8
BLACK
6
CONTINUOUS
10
167.1455039999999883
20
-115.7895849999999882
11
167.545503999999994
21
-115.7895849999999882
0
LINE
8
BLACK
6
CONTINUOUS
10
167.545503999999994
20
-115.7895849999999882
11
167.6220409999999958
21
-115.8048089999999917
0
LINE
8
BLACK
6
CONTINUOUS
10
161.5638040000000046
20
-115.2487969999999962
11
161.6286879999999826
21
-115.2921520000000015
0
LINE
8
BLACK
6
CONTINUOUS
10
161.6286879999999826
20
-115.2921520000000015
11
161.6720430000000022
21
-115.3570359999999937
0
LINE
8
BLACK
6
CONTINUOUS
10
161.6720430000000022
20
-115.3570359999999937
11
161.6872669999999914
21
-115.4335729999999955
0
LINE
8
BLACK
6
CONTINUOUS
10
161.6872669999999914
20
-115.4335729999999955
11
161.6872669999999914
21
-115.8335730000000012
0
LINE
8
BLACK
6
CONTINUOUS
10
161.6872669999999914
20
-115.8335730000000012
11
161.6720430000000022
21
-115.9101099999999889
0
LINE
8
BLACK
6
CONTINUOUS
10
161.6720430000000022
20
-115.9101099999999889
11
161.6286879999999826
21
-115.9749939999999953
0
LINE
8
BLACK
6
CONTINUOUS
10
161.6286879999999826
20
-115.9749939999999953
11
161.5638040000000046
21
-116.0183490000000006
0
LINE
8
BLACK
6
CONTINUOUS
10
161.5638040000000046
20
-116.0183490000000006
11
161.4872670000000028
21
-116.0335729999999899
0
LINE
8
BLACK
6
CONTINUOUS
10
161.4872670000000028
20
-116.0335729999999899
11
160.9372669999999914
21
-116.0335729999999899
0
LINE
8
BLACK
6
CONTINUOUS
10
160.9372669999999914
20
-116.0335729999999899
11
160.8607299999999896
21
-116.0183490000000006
0
LINE
8
BLACK
6
CONTINUOUS
10
160.8607299999999896
20
-116.0183490000000006
11
160.7958459999999832
21
-115.9749939999999953
0
LINE
8
BLACK
6
CONTINUOUS
10
160.7958459999999832
20
-115.9749939999999953
11
160.752490999999992
21
-115.9101099999999889
0
LINE
8
BLACK
6
CONTINUOUS
10
160.752490999999992
20
-115.9101099999999889
11
160.7372670000000028
21
-115.8335730000000012
0
LINE
8
BLACK
6
CONTINUOUS
10
160.7372670000000028
20
-115.8335730000000012
11
160.7372670000000028
21
-115.4335729999999955
0
LINE
8
BLACK
6
CONTINUOUS
10
160.7372670000000028
20
-115.4335729999999955
11
160.752490999999992
21
-115.3570359999999937
0
LINE
8
BLACK
6
CONTINUOUS
10
160.752490999999992
20
-115.3570359999999937
11
160.7958459999999832
21
-115.2921520000000015
0
LINE
8
BLACK
6
CONTINUOUS
10
160.7958459999999832
20
-115.2921520000000015
11
160.8607299999999896
21
-115.2487969999999962
0
LINE
8
BLACK
6
CONTINUOUS
10
160.8607299999999896
20
-115.2487969999999962
11
160.9372669999999914
21
-115.2335729999999927
0
LINE
8
BLACK
6
CONTINUOUS
10
160.9372669999999914
20
-115.2335729999999927
11
161.4872670000000028
21
-115.2335729999999927
0
LINE
8
BLACK
6
CONTINUOUS
10
161.4872670000000028
20
-115.2335729999999927
11
161.5638040000000046
21
-115.2487969999999962
0
LINE
8
BLACK
6
CONTINUOUS
10
154.0298180000000059
20
-115.739340999999996
11
152.8298179999999888
21
-115.739340999999996
0
LINE
8
BLACK
6
CONTINUOUS
10
152.8298179999999888
20
-115.739340999999996
11
152.8298179999999888
21
-115.239340999999996
0
LINE
8
BLACK
6
CONTINUOUS
10
152.8298179999999888
20
-115.239340999999996
11
154.0298180000000059
21
-115.239340999999996
0
LINE
8
BLACK
6
CONTINUOUS
10
154.0298180000000059
20
-115.239340999999996
11
154.0298180000000059
21
-115.739340999999996
0
LINE
8
BLACK
6
CONTINUOUS
10
156.7298179999999945
20
-115.739340999999996
11
155.5298180000000059
21
-115.739340999999996
0
LINE
8
BLACK
6
CONTINUOUS
10
155.5298180000000059
20
-115.739340999999996
11
155.5298180000000059
21
-115.239340999999996
0
LINE
8
BLACK
6
CONTINUOUS
10
155.5298180000000059
20
-115.239340999999996
11
156.7298179999999945
21
-115.239340999999996
0
LINE
8
BLACK
6
CONTINUOUS
10
156.7298179999999945
20
-115.239340999999996
11
156.7298179999999945
21
-115.739340999999996
0
LINE
8
BLACK
6
CONTINUOUS
10
158.4139480000000049
20
-115.0589999999999975
11
158.4463910000000055
21
-115.0806769999999943
0
LINE
8
BLACK
6
CONTINUOUS
10
158.4463910000000055
20
-115.0806769999999943
11
158.4680679999999882
21
-115.113119999999995
0
LINE
8
BLACK
6
CONTINUOUS
10
158.4680679999999882
20
-115.113119999999995
11
158.4756799999999828
21
-115.1513879999999972
0
LINE
8
BLACK
6
CONTINUOUS
10
158.4756799999999828
20
-115.1513879999999972
11
158.4756799999999828
21
-115.601388
0
LINE
8
BLACK
6
CONTINUOUS
10
158.4756799999999828
20
-115.601388
11
158.4680679999999882
21
-115.639655999999988
0
LINE
8
BLACK
6
CONTINUOUS
10
158.4680679999999882
20
-115.639655999999988
11
158.4463910000000055
21
-115.6720989999999887
0
LINE
8
BLACK
6
CONTINUOUS
10
158.4463910000000055
20
-115.6720989999999887
11
158.4139480000000049
21
-115.6937759999999997
0
LINE
8
BLACK
6
CONTINUOUS
10
158.4139480000000049
20
-115.6937759999999997
11
158.3756799999999885
21
-115.7013879999999943
0
LINE
8
BLACK
6
CONTINUOUS
10
158.3756799999999885
20
-115.7013879999999943
11
158.1756799999999998
21
-115.7013879999999943
0
LINE
8
BLACK
6
CONTINUOUS
10
158.1756799999999998
20
-115.7013879999999943
11
158.1374119999999834
21
-115.6937759999999997
0
LINE
8
BLACK
6
CONTINUOUS
10
158.1374119999999834
20
-115.6937759999999997
11
158.1049689999999828
21
-115.6720989999999887
0
LINE
8
BLACK
6
CONTINUOUS
10
158.1049689999999828
20
-115.6720989999999887
11
158.0832920000000001
21
-115.639655999999988
0
LINE
8
BLACK
6
CONTINUOUS
10
158.0832920000000001
20
-115.639655999999988
11
158.0756800000000055
21
-115.601388
0
LINE
8
BLACK
6
CONTINUOUS
10
158.0756800000000055
20
-115.601388
11
158.0756800000000055
21
-115.1513879999999972
0
LINE
8
BLACK
6
CONTINUOUS
10
158.0756800000000055
20
-115.1513879999999972
11
158.0832920000000001
21
-115.113119999999995
0
LINE
8
BLACK
6
CONTINUOUS
10
158.0832920000000001
20
-115.113119999999995
11
158.1049689999999828
21
-115.0806769999999943
0
LINE
8
BLACK
6
CONTINUOUS
10
158.1049689999999828
20
-115.0806769999999943
11
158.1374119999999834
21
-115.0589999999999975
0
LINE
8
BLACK
6
CONTINUOUS
10
158.1374119999999834
20
-115.0589999999999975
11
158.1756799999999998
21
-115.0513879999999887
0
LINE
8
BLACK
6
CONTINUOUS
10
158.1756799999999998
20
-115.0513879999999887
11
158.3756799999999885
21
-115.0513879999999887
0
LINE
8
BLACK
6
CONTINUOUS
10
158.3756799999999885
20
-115.0513879999999887
11
158.4139480000000049
21
-115.0589999999999975
0
LINE
8
BLACK
6
CONTINUOUS
10
159.0639479999999821
20
-115.0589999999999975
11
159.0963909999999828
21
-115.0806769999999943
0
LINE
8
BLACK
6
CONTINUOUS
10
159.0963909999999828
20
-115.0806769999999943
11
159.1180679999999938
21
-115.113119999999995
0
LINE
8
BLACK
6
CONTINUOUS
10
159.1180679999999938
20
-115.113119999999995
11
159.1256799999999885
21
-115.1513879999999972
0
LINE
8
BLACK
6
CONTINUOUS
10
159.1256799999999885
20
-115.1513879999999972
11
159.1256799999999885
21
-115.601388
0
LINE
8
BLACK
6
CONTINUOUS
10
159.1256799999999885
20
-115.601388
11
159.1180679999999938
21
-115.639655999999988
0
LINE
8
BLACK
6
CONTINUOUS
10
159.1180679999999938
20
-115.639655999999988
11
159.0963909999999828
21
-115.6720989999999887
0
LINE
8
BLACK
6
CONTINUOUS
10
159.0963909999999828
20
-115.6720989999999887
11
159.0639479999999821
21
-115.6937759999999997
0
LINE
8
BLACK
6
CONTINUOUS
10
159.0639479999999821
20
-115.6937759999999997
11
159.0256799999999942
21
-115.7013879999999943
0
LINE
8
BLACK
6
CONTINUOUS
10
159.0256799999999942
20
-115.7013879999999943
11
158.8256800000000055
21
-115.7013879999999943
0
LINE
8
BLACK
6
CONTINUOUS
10
158.8256800000000055
20
-115.7013879999999943
11
158.7874119999999891
21
-115.6937759999999997
0
LINE
8
BLACK
6
CONTINUOUS
10
158.7874119999999891
20
-115.6937759999999997
11
158.7549689999999885
21
-115.6720989999999887
0
LINE
8
BLACK
6
CONTINUOUS
10
158.7549689999999885
20
-115.6720989999999887
11
158.7332920000000058
21
-115.639655999999988
0
LINE
8
BLACK
6
CONTINUOUS
10
158.7332920000000058
20
-115.639655999999988
11
158.7256799999999828
21
-115.601388
0
LINE
8
BLACK
6
CONTINUOUS
10
158.7256799999999828
20
-115.601388
11
158.7256799999999828
21
-115.1513879999999972
0
LINE
8
BLACK
6
CONTINUOUS
10
158.7256799999999828
20
-115.1513879999999972
11
158.7332920000000058
21
-115.113119999999995
0
LINE
8
BLACK
6
CONTINUOUS
10
158.7332920000000058
20
-115.113119999999995
11
158.7549689999999885
21
-115.0806769999999943
0
LINE
8
BLACK
6
CONTINUOUS
10
158.7549689999999885
20
-115.0806769999999943
11
158.7874119999999891
21
-115.0589999999999975
0
LINE
8
BLACK
6
CONTINUOUS
10
158.7874119999999891
20
-115.0589999999999975
11
158.8256800000000055
21
-115.0513879999999887
0
LINE
8
BLACK
6
CONTINUOUS
10
158.8256800000000055
20
-115.0513879999999887
11
159.0256799999999942
21
-115.0513879999999887
0
LINE
8
BLACK
6
CONTINUOUS
10
159.0256799999999942
20
-115.0513879999999887
11
159.0639479999999821
21
-115.0589999999999975
0
LINE
8
BLACK
6
CONTINUOUS
10
159.7139479999999878
20
-115.0589999999999975
11
159.7463909999999885
21
-115.0806769999999943
0
LINE
8
BLACK
6
CONTINUOUS
10
159.7463909999999885
20
-115.0806769999999943
11
159.7680679999999995
21
-115.113119999999995
0
LINE
8
BLACK
6
CONTINUOUS
10
159.7680679999999995
20
-115.113119999999995
11
159.7756799999999942
21
-115.1513879999999972
0
LINE
8
BLACK
6
CONTINUOUS
10
159.7756799999999942
20
-115.1513879999999972
11
159.7756799999999942
21
-115.601388
0
LINE
8
BLACK
6
CONTINUOUS
10
159.7756799999999942
20
-115.601388
11
159.7680679999999995
21
-115.639655999999988
0
LINE
8
BLACK
6
CONTINUOUS
10
159.7680679999999995
20
-115.639655999999988
11
159.7463909999999885
21
-115.6720989999999887
0
LINE
8
BLACK
6
CONTINUOUS
10
159.7463909999999885
20
-115.6720989999999887
11
159.7139479999999878
21
-115.6937759999999997
0
LINE
8
BLACK
6
CONTINUOUS
10
159.7139479999999878
20
-115.6937759999999997
11
159.6756799999999998
21
-115.7013879999999943
0
LINE
8
BLACK
6
CONTINUOUS
10
159.6756799999999998
20
-115.7013879999999943
11
159.4756799999999828
21
-115.7013879999999943
0
LINE
8
BLACK
6
CONTINUOUS
10
159.4756799999999828
20
-115.7013879999999943
11
159.4374119999999948
21
-115.6937759999999997
0
LINE
8
BLACK
6
CONTINUOUS
10
159.4374119999999948
20
-115.6937759999999997
11
159.4049689999999941
21
-115.6720989999999887
0
LINE
8
BLACK
6
CONTINUOUS
10
159.4049689999999941
20
-115.6720989999999887
11
159.3832919999999831
21
-115.639655999999988
0
LINE
8
BLACK
6
CONTINUOUS
10
159.3832919999999831
20
-115.639655999999988
11
159.3756799999999885
21
-115.601388
0
LINE
8
BLACK
6
CONTINUOUS
10
159.3756799999999885
20
-115.601388
11
159.3756799999999885
21
-115.1513879999999972
0
LINE
8
BLACK
6
CONTINUOUS
10
159.3756799999999885
20
-115.1513879999999972
11
159.3832919999999831
21
-115.113119999999995
0
LINE
8
BLACK
6
CONTINUOUS
10
159.3832919999999831
20
-115.113119999999995
11
159.4049689999999941
21
-115.0806769999999943
0
LINE
8
BLACK
6
CONTINUOUS
10
159.4049689999999941
20
-115.0806769999999943
11
159.4374119999999948
21
-115.0589999999999975
0
LINE
8
BLACK
6
CONTINUOUS
10
159.4374119999999948
20
-115.0589999999999975
11
159.4756799999999828
21
-115.0513879999999887
0
LINE
8
BLACK
6
CONTINUOUS
10
159.4756799999999828
20
-115.0513879999999887
11
159.6756799999999998
21
-115.0513879999999887
0
LINE
8
BLACK
6
CONTINUOUS
10
159.6756799999999998
20
-115.0513879999999887
11
159.7139479999999878
21
-115.0589999999999975
0
LINE
8
BLACK
6
CONTINUOUS
10
154.0298180000000059
20
-114.7893409999999932
11
152.8298179999999888
21
-114.7893409999999932
0
LINE
8
BLACK
6
CONTINUOUS
10
152.8298179999999888
20
-114.7893409999999932
11
152.8298179999999888
21
-114.2893409999999932
0
LINE
8
BLACK
6
CONTINUOUS
10
152.8298179999999888
20
-114.2893409999999932
11
154.0298180000000059
21
-114.2893409999999932
0
LINE
8
BLACK
6
CONTINUOUS
10
154.0298180000000059
20
-114.2893409999999932
11
154.0298180000000059
21
-114.7893409999999932
0
LINE
8
BLACK
6
CONTINUOUS
10
151.0893629999999916
20
-112.1712309999999917
11
151.1704689999999971
21
-112.2254239999999896
0
LINE
8
BLACK
6
CONTINUOUS
10
151.1704689999999971
20
-112.2254239999999896
11
151.224661999999995
21
-112.3065299999999951
0
LINE
8
BLACK
6
CONTINUOUS
10
151.224661999999995
20
-112.3065299999999951
11
151.2436919999999816
21
-112.4022009999999909
0
LINE
8
BLACK
6
CONTINUOUS
10
151.2436919999999816
20
-112.4022009999999909
11
151.2436919999999816
21
-114.4022009999999909
0
LINE
8
BLACK
6
CONTINUOUS
10
151.2436919999999816
20
-114.4022009999999909
11
151.224661999999995
21
-114.497872000000001
0
LINE
8
BLACK
6
CONTINUOUS
10
151.224661999999995
20
-114.497872000000001
11
151.1704689999999971
21
-114.5789779999999922
0
LINE
8
BLACK
6
CONTINUOUS
10
151.1704689999999971
20
-114.5789779999999922
11
151.0893629999999916
21
-114.6331709999999902
0
LINE
8
BLACK
6
CONTINUOUS
10
151.0893629999999916
20
-114.6331709999999902
11
150.9936919999999816
21
-114.6522009999999909
0
LINE
8
BLACK
6
CONTINUOUS
10
150.9936919999999816
20
-114.6522009999999909
11
149.6936919999999986
21
-114.6522009999999909
0
LINE
8
BLACK
6
CONTINUOUS
10
149.6936919999999986
20
-114.6522009999999909
11
149.5980209999999886
21
-114.6331709999999902
0
LINE
8
BLACK
6
CONTINUOUS
10
149.5980209999999886
20
-114.6331709999999902
11
149.5169149999999831
21
-114.5789779999999922
0
LINE
8
BLACK
6
CONTINUOUS
10
149.5169149999999831
20
-114.5789779999999922
11
149.4627219999999852
21
-114.497872000000001
0
LINE
8
BLACK
6
CONTINUOUS
10
149.4627219999999852
20
-114.497872000000001
11
149.4436919999999986
21
-114.4022009999999909
0
LINE
8
BLACK
6
CONTINUOUS
10
149.4436919999999986
20
-114.4022009999999909
11
149.4436919999999986
21
-112.4022009999999909
0
LINE
8
BLACK
6
CONTINUOUS
10
149.4436919999999986
20
-112.4022009999999909
11
149.4627219999999852
21
-112.3065299999999951
0
LINE
8
BLACK
6
CONTINUOUS
10
149.4627219999999852
20
-112.3065299999999951
11
149.5169149999999831
21
-112.2254239999999896
0
LINE
8
BLACK
6
CONTINUOUS
10
149.5169149999999831
20
-112.2254239999999896
11
149.5980209999999886
21
-112.1712309999999917
0
LINE
8
BLACK
6
CONTINUOUS
10
149.5980209999999886
20
-112.1712309999999917
11
149.6936919999999986
21
-112.1522009999999909
0
LINE
8
BLACK
6
CONTINUOUS
10
149.6936919999999986
20
-112.1522009999999909
11
150.9936919999999816
21
-112.1522009999999909
0
LINE
8
BLACK
6
CONTINUOUS
10
150.9936919999999816
20
-112.1522009999999909
11
151.0893629999999916
21
-112.1712309999999917
0
LINE
8
BLACK
6
CONTINUOUS
10
158.4992839999999887
20
-113.0151419999999973
11
158.5722789999999804
21
-113.0639159999999919
0
LINE
8
BLACK
6
CONTINUOUS
10
158.5722789999999804
20
-113.0639159999999919
11
158.6210529999999892
21
-113.1369109999999978
0
LINE
8
BLACK
6
CONTINUOUS
10
158.6210529999999892
20
-113.1369109999999978
11
158.6381800000000055
21
-113.2230149999999895
0
LINE
8
BLACK
6
CONTINUOUS
10
158.6381800000000055
20
-113.2230149999999895
11
158.6381800000000055
21
-113.7230149999999895
0
LINE
8
BLACK
6
CONTINUOUS
10
158.6381800000000055
20
-113.7230149999999895
11
158.6210529999999892
21
-113.8091189999999955
0
LINE
8
BLACK
6
CONTINUOUS
10
158.6210529999999892
20
-113.8091189999999955
11
158.5722789999999804
21
-113.8821140000000014
0
LINE
8
BLACK
6
CONTINUOUS
10
158.5722789999999804
20
-113.8821140000000014
11
158.4992839999999887
21
-113.9308879999999959
0
LINE
8
BLACK
6
CONTINUOUS
10
158.4992839999999887
20
-113.9308879999999959
11
158.4131799999999828
21
-113.9480149999999981
0
LINE
8
BLACK
6
CONTINUOUS
10
158.4131799999999828
20
-113.9480149999999981
11
157.9631799999999942
21
-113.9480149999999981
0
LINE
8
BLACK
6
CONTINUOUS
10
157.9631799999999942
20
-113.9480149999999981
11
157.8770759999999882
21
-113.9308879999999959
0
LINE
8
BLACK
6
CONTINUOUS
10
157.8770759999999882
20
-113.9308879999999959
11
157.8040809999999965
21
-113.8821140000000014
0
LINE
8
BLACK
6
CONTINUOUS
10
157.8040809999999965
20
-113.8821140000000014
11
157.7553069999999877
21
-113.8091189999999955
0
LINE
8
BLACK
6
CONTINUOUS
10
157.7553069999999877
20
-113.8091189999999955
11
157.7381799999999998
21
-113.7230149999999895
0
LINE
8
BLACK
6
CONTINUOUS
10
157.7381799999999998
20
-113.7230149999999895
11
157.7381799999999998
21
-113.2230149999999895
0
LINE
8
BLACK
6
CONTINUOUS
10
157.7381799999999998
20
-113.2230149999999895
11
157.7553069999999877
21
-113.1369109999999978
0
LINE
8
BLACK
6
CONTINUOUS
10
157.7553069999999877
20
-113.1369109999999978
11
157.8040809999999965
21
-113.0639159999999919
0
LINE
8
BLACK
6
CONTINUOUS
10
157.8040809999999965
20
-113.0639159999999919
11
157.8770759999999882
21
-113.0151419999999973
0
LINE
8
BLACK
6
CONTINUOUS
10
157.8770759999999882
20
-113.0151419999999973
11
157.9631799999999942
21
-112.9980149999999952
0
LINE
8
BLACK
6
CONTINUOUS
10
157.9631799999999942
20
-112.9980149999999952
11
158.4131799999999828
21
-112.9980149999999952
0
LINE
8
BLACK
6
CONTINUOUS
10
158.4131799999999828
20
-112.9980149999999952
11
158.4992839999999887
21
-113.0151419999999973
0
LINE
8
BLACK
6
CONTINUOUS
10
160.0492840000000001
20
-113.0151419999999973
11
160.1222789999999918
21
-113.0639159999999919
0
LINE
8
BLACK
6
CONTINUOUS
10
160.1222789999999918
20
-113.0639159999999919
11
160.1710530000000006
21
-113.1369109999999978
0
LINE
8
BLACK
6
CONTINUOUS
10
160.1710530000000006
20
-113.1369109999999978
11
160.1881799999999885
21
-113.2230149999999895
0
LINE
8
BLACK
6
CONTINUOUS
10
160.1881799999999885
20
-113.2230149999999895
11
160.1881799999999885
21
-113.7230149999999895
0
LINE
8
BLACK
6
CONTINUOUS
10
160.1881799999999885
20
-113.7230149999999895
11
160.1710530000000006
21
-113.8091189999999955
0
LINE
8
BLACK
6
CONTINUOUS
10
160.1710530000000006
20
-113.8091189999999955
11
160.1222789999999918
21
-113.8821140000000014
0
LINE
8
BLACK
6
CONTINUOUS
10
160.1222789999999918
20
-113.8821140000000014
11
160.0492840000000001
21
-113.9308879999999959
0
LINE
8
BLACK
6
CONTINUOUS
10
160.0492840000000001
20
-113.9308879999999959
11
159.9631799999999942
21
-113.9480149999999981
0
LINE
8
BLACK
6
CONTINUOUS
10
159.9631799999999942
20
-113.9480149999999981
11
159.5131800000000055
21
-113.9480149999999981
0
LINE
8
BLACK
6
CONTINUOUS
10
159.5131800000000055
20
-113.9480149999999981
11
159.4270759999999996
21
-113.9308879999999959
0
LINE
8
BLACK
6
CONTINUOUS
10
159.4270759999999996
20
-113.9308879999999959
11
159.3540809999999794
21
-113.8821140000000014
0
LINE
8
BLACK
6
CONTINUOUS
10
159.3540809999999794
20
-113.8821140000000014
11
159.3053069999999991
21
-113.8091189999999955
0
LINE
8
BLACK
6
CONTINUOUS
10
159.3053069999999991
20
-113.8091189999999955
11
159.2881799999999828
21
-113.7230149999999895
0
LINE
8
BLACK
6
CONTINUOUS
10
159.2881799999999828
20
-113.7230149999999895
11
159.2881799999999828
21
-113.2230149999999895
0
LINE
8
BLACK
6
CONTINUOUS
10
159.2881799999999828
20
-113.2230149999999895
11
159.3053069999999991
21
-113.1369109999999978
0
LINE
8
BLACK
6
CONTINUOUS
10
159.3053069999999991
20
-113.1369109999999978
11
159.3540809999999794
21
-113.0639159999999919
0
LINE
8
BLACK
6
CONTINUOUS
10
159.3540809999999794
20
-113.0639159999999919
11
159.4270759999999996
21
-113.0151419999999973
0
LINE
8
BLACK
6
CONTINUOUS
10
159.4270759999999996
20
-113.0151419999999973
11
159.5131800000000055
21
-112.9980149999999952
0
LINE
8
BLACK
6
CONTINUOUS
10
159.5131800000000055
20
-112.9980149999999952
11
159.9631799999999942
21
-112.9980149999999952
0
LINE
8
BLACK
6
CONTINUOUS
10
159.9631799999999942
20
-112.9980149999999952
11
160.0492840000000001
21
-113.0151419999999973
0
LINE
8
BLACK
6
CONTINUOUS
10
154.0298180000000059
20
-113.8393409999999903
11
152.8298179999999888
21
-113.8393409999999903
0
LINE
8
BLACK
6
CONTINUOUS
10
152.8298179999999888
20
-113.8393409999999903
11
152.8298179999999888
21
-113.3393409999999903
0
LINE
8
BLACK
6
CONTINUOUS
10
152.8298179999999888
20
-113.3393409999999903
11
154.0298180000000059
21
-113.3393409999999903
0
LINE
8
BLACK
6
CONTINUOUS
10
154.0298180000000059
20
-113.3393409999999903
11
154.0298180000000059
21
-113.8393409999999903
0
LINE
8
BLACK
6
CONTINUOUS
10
156.7298179999999945
20
-113.8393409999999903
11
155.5298180000000059
21
-113.8393409999999903
0
LINE
8
BLACK
6
CONTINUOUS
10
155.5298180000000059
20
-113.8393409999999903
11
155.5298180000000059
21
-113.3393409999999903
0
LINE
8
BLACK
6
CONTINUOUS
10
155.5298180000000059
20
-113.3393409999999903
11
156.7298179999999945
21
-113.3393409999999903
0
LINE
8
BLACK
6
CONTINUOUS
10
156.7298179999999945
20
-113.3393409999999903
11
156.7298179999999945
21
-113.8393409999999903
0
LINE
8
BLACK
6
CONTINUOUS
10
195.8511330000000044
20
-113.7322009999999892
11
194.051132999999993
21
-113.7322009999999892
0
LINE
8
BLACK
6
CONTINUOUS
10
194.051132999999993
20
-113.7322009999999892
11
194.051132999999993
21
-112.5322010000000006
0
LINE
8
BLACK
6
CONTINUOUS
10
194.051132999999993
20
-112.5322010000000006
11
195.8511330000000044
21
-112.5322010000000006
0
LINE
8
BLACK
6
CONTINUOUS
10
195.8511330000000044
20
-112.5322010000000006
11
195.8511330000000044
21
-113.7322009999999892
0
LINE
8
BLACK
6
CONTINUOUS
10
203.8511330000000044
20
-113.7322009999999892
11
202.051132999999993
21
-113.7322009999999892
0
LINE
8
BLACK
6
CONTINUOUS
10
202.051132999999993
20
-113.7322009999999892
11
202.051132999999993
21
-112.5322010000000006
0
LINE
8
BLACK
6
CONTINUOUS
10
202.051132999999993
20
-112.5322010000000006
11
203.8511330000000044
21
-112.5322010000000006
0
LINE
8
BLACK
6
CONTINUOUS
10
203.8511330000000044
20
-112.5322010000000006
11
203.8511330000000044
21
-113.7322009999999892
0
LINE
8
BLACK
6
CONTINUOUS
10
211.8511330000000044
20
-113.7322009999999892
11
210.051132999999993
21
-113.7322009999999892
0
LINE
8
BLACK
6
CONTINUOUS
10
210.051132999999993
20
-113.7322009999999892
11
210.051132999999993
21
-112.5322010000000006
0
LINE
8
BLACK
6
CONTINUOUS
10
210.051132999999993
20
-112.5322010000000006
11
211.8511330000000044
21
-112.5322010000000006
0
LINE
8
BLACK
6
CONTINUOUS
10
211.8511330000000044
20
-112.5322010000000006
11
211.8511330000000044
21
-113.7322009999999892
0
LINE
8
BLACK
6
CONTINUOUS
10
219.8511329999999759
20
-113.7322009999999892
11
218.051132999999993
21
-113.7322009999999892
0
LINE
8
BLACK
6
CONTINUOUS
10
218.051132999999993
20
-113.7322009999999892
11
218.051132999999993
21
-112.5322010000000006
0
LINE
8
BLACK
6
CONTINUOUS
10
218.051132999999993
20
-112.5322010000000006
11
219.8511329999999759
21
-112.5322010000000006
0
LINE
8
BLACK
6
CONTINUOUS
10
219.8511329999999759
20
-112.5322010000000006
11
219.8511329999999759
21
-113.7322009999999892
0
LINE
8
BLACK
6
CONTINUOUS
10
154.3159220000000005
20
-111.4571749999999923
11
154.3889169999999922
21
-111.5059490000000011
0
LINE
8
BLACK
6
CONTINUOUS
10
154.3889169999999922
20
-111.5059490000000011
11
154.4376910000000009
21
-111.5789439999999928
0
LINE
8
BLACK
6
CONTINUOUS
10
154.4376910000000009
20
-111.5789439999999928
11
154.4548179999999888
21
-111.6650479999999988
0
LINE
8
BLACK
6
CONTINUOUS
10
154.4548179999999888
20
-111.6650479999999988
11
154.4548179999999888
21
-112.1650479999999988
0
LINE
8
BLACK
6
CONTINUOUS
10
154.4548179999999888
20
-112.1650479999999988
11
154.4376910000000009
21
-112.2511519999999905
0
LINE
8
BLACK
6
CONTINUOUS
10
154.4376910000000009
20
-112.2511519999999905
11
154.3889169999999922
21
-112.3241469999999964
0
LINE
8
BLACK
6
CONTINUOUS
10
154.3889169999999922
20
-112.3241469999999964
11
154.3159220000000005
21
-112.372920999999991
0
LINE
8
BLACK
6
CONTINUOUS
10
154.3159220000000005
20
-112.372920999999991
11
154.2298179999999945
21
-112.3900479999999931
0
LINE
8
BLACK
6
CONTINUOUS
10
154.2298179999999945
20
-112.3900479999999931
11
153.7798180000000059
21
-112.3900479999999931
0
LINE
8
BLACK
6
CONTINUOUS
10
153.7798180000000059
20
-112.3900479999999931
11
153.6937139999999999
21
-112.372920999999991
0
LINE
8
BLACK
6
CONTINUOUS
10
153.6937139999999999
20
-112.372920999999991
11
153.6207189999999798
21
-112.3241469999999964
0
LINE
8
BLACK
6
CONTINUOUS
10
153.6207189999999798
20
-112.3241469999999964
11
153.5719449999999995
21
-112.2511519999999905
0
LINE
8
BLACK
6
CONTINUOUS
10
153.5719449999999995
20
-112.2511519999999905
11
153.5548179999999832
21
-112.1650479999999988
0
LINE
8
BLACK
6
CONTINUOUS
10
153.5548179999999832
20
-112.1650479999999988
11
153.5548179999999832
21
-111.6650479999999988
0
LINE
8
BLACK
6
CONTINUOUS
10
153.5548179999999832
20
-111.6650479999999988
11
153.5719449999999995
21
-111.5789439999999928
0
LINE
8
BLACK
6
CONTINUOUS
10
153.5719449999999995
20
-111.5789439999999928
11
153.6207189999999798
21
-111.5059490000000011
0
LINE
8
BLACK
6
CONTINUOUS
10
153.6207189999999798
20
-111.5059490000000011
11
153.6937139999999999
21
-111.4571749999999923
0
LINE
8
BLACK
6
CONTINUOUS
10
153.6937139999999999
20
-111.4571749999999923
11
153.7798180000000059
21
-111.4400479999999902
0
LINE
8
BLACK
6
CONTINUOUS
10
153.7798180000000059
20
-111.4400479999999902
11
154.2298179999999945
21
-111.4400479999999902
0
LINE
8
BLACK
6
CONTINUOUS
10
154.2298179999999945
20
-111.4400479999999902
11
154.3159220000000005
21
-111.4571749999999923
0
LINE
8
BLACK
6
CONTINUOUS
10
155.8659219999999834
20
-111.4571749999999923
11
155.9389170000000036
21
-111.5059490000000011
0
LINE
8
BLACK
6
CONTINUOUS
10
155.9389170000000036
20
-111.5059490000000011
11
155.9876909999999839
21
-111.5789439999999928
0
LINE
8
BLACK
6
CONTINUOUS
10
155.9876909999999839
20
-111.5789439999999928
11
156.0048180000000002
21
-111.6650479999999988
0
LINE
8
BLACK
6
CONTINUOUS
10
156.0048180000000002
20
-111.6650479999999988
11
156.0048180000000002
21
-112.1650479999999988
0
LINE
8
BLACK
6
CONTINUOUS
10
156.0048180000000002
20
-112.1650479999999988
11
155.9876909999999839
21
-112.2511519999999905
0
LINE
8
BLACK
6
CONTINUOUS
10
155.9876909999999839
20
-112.2511519999999905
11
155.9389170000000036
21
-112.3241469999999964
0
LINE
8
BLACK
6
CONTINUOUS
10
155.9389170000000036
20
-112.3241469999999964
11
155.8659219999999834
21
-112.372920999999991
0
LINE
8
BLACK
6
CONTINUOUS
10
155.8659219999999834
20
-112.372920999999991
11
155.7798180000000059
21
-112.3900479999999931
0
LINE
8
BLACK
6
CONTINUOUS
10
155.7798180000000059
20
-112.3900479999999931
11
155.3298179999999888
21
-112.3900479999999931
0
LINE
8
BLACK
6
CONTINUOUS
10
155.3298179999999888
20
-112.3900479999999931
11
155.2437139999999829
21
-112.372920999999991
0
LINE
8
BLACK
6
CONTINUOUS
10
155.2437139999999829
20
-112.372920999999991
11
155.1707189999999912
21
-112.3241469999999964
0
LINE
8
BLACK
6
CONTINUOUS
10
155.1707189999999912
20
-112.3241469999999964
11
155.1219449999999824
21
-112.2511519999999905
0
LINE
8
BLACK
6
CONTINUOUS
10
155.1219449999999824
20
-112.2511519999999905
11
155.1048179999999945
21
-112.1650479999999988
0
LINE
8
BLACK
6
CONTINUOUS
10
155.1048179999999945
20
-112.1650479999999988
11
155.1048179999999945
21
-111.6650479999999988
0
LINE
8
BLACK
6
CONTINUOUS
10
155.1048179999999945
20
-111.6650479999999988
11
155.1219449999999824
21
-111.5789439999999928
0
LINE
8
BLACK
6
CONTINUOUS
10
155.1219449999999824
20
-111.5789439999999928
11
155.1707189999999912
21
-111.5059490000000011
0
LINE
8
BLACK
6
CONTINUOUS
10
155.1707189999999912
20
-111.5059490000000011
11
155.2437139999999829
21
-111.4571749999999923
0
LINE
8
BLACK
6
CONTINUOUS
10
155.2437139999999829
20
-111.4571749999999923
11
155.3298179999999888
21
-111.4400479999999902
0
LINE
8
BLACK
6
CONTINUOUS
10
155.3298179999999888
20
-111.4400479999999902
11
155.7798180000000059
21
-111.4400479999999902
0
LINE
8
BLACK
6
CONTINUOUS
10
155.7798180000000059
20
-111.4400479999999902
11
155.8659219999999834
21
-111.4571749999999923
0
LINE
8
BLACK
6
CONTINUOUS
10
158.414716999999996
20
-111.3881829999999979
11
158.4796010000000024
21
-111.4315379999999891
0
LINE
8
BLACK
6
CONTINUOUS
10
158.4796010000000024
20
-111.4315379999999891
11
158.5229559999999935
21
-111.4964219999999955
0
LINE
8
BLACK
6
CONTINUOUS
10
158.5229559999999935
20
-111.4964219999999955
11
158.5381799999999828
21
-111.5729589999999973
0
LINE
8
BLACK
6
CONTINUOUS
10
158.5381799999999828
20
-111.5729589999999973
11
158.5381799999999828
21
-112.1229589999999945
0
LINE
8
BLACK
6
CONTINUOUS
10
158.5381799999999828
20
-112.1229589999999945
11
158.5229559999999935
21
-112.1994959999999963
0
LINE
8
BLACK
6
CONTINUOUS
10
158.5229559999999935
20
-112.1994959999999963
11
158.4796010000000024
21
-112.2643799999999885
0
LINE
8
BLACK
6
CONTINUOUS
10
158.4796010000000024
20
-112.2643799999999885
11
158.414716999999996
21
-112.3077349999999939
0
LINE
8
BLACK
6
CONTINUOUS
10
158.414716999999996
20
-112.3077349999999939
11
158.3381799999999942
21
-112.3229589999999973
0
LINE
8
BLACK
6
CONTINUOUS
10
158.3381799999999942
20
-112.3229589999999973
11
157.9381799999999885
21
-112.3229589999999973
0
LINE
8
BLACK
6
CONTINUOUS
10
157.9381799999999885
20
-112.3229589999999973
11
157.8616429999999866
21
-112.3077349999999939
0
LINE
8
BLACK
6
CONTINUOUS
10
157.8616429999999866
20
-112.3077349999999939
11
157.7967589999999802
21
-112.2643799999999885
0
LINE
8
BLACK
6
CONTINUOUS
10
157.7967589999999802
20
-112.2643799999999885
11
157.7534039999999891
21
-112.1994959999999963
0
LINE
8
BLACK
6
CONTINUOUS
10
157.7534039999999891
20
-112.1994959999999963
11
157.7381799999999998
21
-112.1229589999999945
0
LINE
8
BLACK
6
CONTINUOUS
10
157.7381799999999998
20
-112.1229589999999945
11
157.7381799999999998
21
-111.5729589999999973
0
LINE
8
BLACK
6
CONTINUOUS
10
157.7381799999999998
20
-111.5729589999999973
11
157.7534039999999891
21
-111.4964219999999955
0
LINE
8
BLACK
6
CONTINUOUS
10
157.7534039999999891
20
-111.4964219999999955
11
157.7967589999999802
21
-111.4315379999999891
0
LINE
8
BLACK
6
CONTINUOUS
10
157.7967589999999802
20
-111.4315379999999891
11
157.8616429999999866
21
-111.3881829999999979
0
LINE
8
BLACK
6
CONTINUOUS
10
157.8616429999999866
20
-111.3881829999999979
11
157.9381799999999885
21
-111.3729589999999945
0
LINE
8
BLACK
6
CONTINUOUS
10
157.9381799999999885
20
-111.3729589999999945
11
158.3381799999999942
21
-111.3729589999999945
0
LINE
8
BLACK
6
CONTINUOUS
10
158.3381799999999942
20
-111.3729589999999945
11
158.414716999999996
21
-111.3881829999999979
0
LINE
8
BLACK
6
CONTINUOUS
10
160.0647170000000017
20
-111.3881829999999979
11
160.1296009999999796
21
-111.4315379999999891
0
LINE
8
BLACK
6
CONTINUOUS
10
160.1296009999999796
20
-111.4315379999999891
11
160.1729559999999992
21
-111.4964219999999955
0
LINE
8
BLACK
6
CONTINUOUS
10
160.1729559999999992
20
-111.4964219999999955
11
160.1881799999999885
21
-111.5729589999999973
0
LINE
8
BLACK
6
CONTINUOUS
10
160.1881799999999885
20
-111.5729589999999973
11
160.1881799999999885
21
-112.1229589999999945
0
LINE
8
BLACK
6
CONTINUOUS
10
160.1881799999999885
20
-112.1229589999999945
11
160.1729559999999992
21
-112.1994959999999963
0
LINE
8
BLACK
6
CONTINUOUS
10
160.1729559999999992
20
-112.1994959999999963
11
160.1296009999999796
21
-112.2643799999999885
0
LINE
8
BLACK
6
CONTINUOUS
10
160.1296009999999796
20
-112.2643799999999885
11
160.0647170000000017
21
-112.3077349999999939
0
LINE
8
BLACK
6
CONTINUOUS
10
160.0647170000000017
20
-112.3077349999999939
11
159.9881799999999998
21
-112.3229589999999973
0
LINE
8
BLACK
6
CONTINUOUS
10
159.9881799999999998
20
-112.3229589999999973
11
159.5881799999999942
21
-112.3229589999999973
0
LINE
8
BLACK
6
CONTINUOUS
10
159.5881799999999942
20
-112.3229589999999973
11
159.5116429999999923
21
-112.3077349999999939
0
LINE
8
BLACK
6
CONTINUOUS
10
159.5116429999999923
20
-112.3077349999999939
11
159.4467589999999859
21
-112.2643799999999885
0
LINE
8
BLACK
6
CONTINUOUS
10
159.4467589999999859
20
-112.2643799999999885
11
159.4034039999999948
21
-112.1994959999999963
0
LINE
8
BLACK
6
CONTINUOUS
10
159.4034039999999948
20
-112.1994959999999963
11
159.3881800000000055
21
-112.1229589999999945
0
LINE
8
BLACK
6
CONTINUOUS
10
159.3881800000000055
20
-112.1229589999999945
11
159.3881800000000055
21
-111.5729589999999973
0
LINE
8
BLACK
6
CONTINUOUS
10
159.3881800000000055
20
-111.5729589999999973
11
159.4034039999999948
21
-111.4964219999999955
0
LINE
8
BLACK
6
CONTINUOUS
10
159.4034039999999948
20
-111.4964219999999955
11
159.4467589999999859
21
-111.4315379999999891
0
LINE
8
BLACK
6
CONTINUOUS
10
159.4467589999999859
20
-111.4315379999999891
11
159.5116429999999923
21
-111.3881829999999979
0
LINE
8
BLACK
6
CONTINUOUS
10
159.5116429999999923
20
-111.3881829999999979
11
159.5881799999999942
21
-111.3729589999999945
0
LINE
8
BLACK
6
CONTINUOUS
10
159.5881799999999942
20
-111.3729589999999945
11
159.9881799999999998
21
-111.3729589999999945
0
LINE
8
BLACK
6
CONTINUOUS
10
159.9881799999999998
20
-111.3729589999999945
11
160.0647170000000017
21
-111.3881829999999979
0
LINE
8
BLACK
6
CONTINUOUS
10
146.9577989999999943
20
-111.8155339999999995
11
145.7577990000000057
21
-111.8155339999999995
0
LINE
8
BLACK
6
CONTINUOUS
10
145.7577990000000057
20
-111.8155339999999995
11
145.7577990000000057
21
-110.0155339999999882
0
LINE
8
BLACK
6
CONTINUOUS
10
145.7577990000000057
20
-110.0155339999999882
11
146.9577989999999943
21
-110.0155339999999882
0
LINE
8
BLACK
6
CONTINUOUS
10
146.9577989999999943
20
-110.0155339999999882
11
146.9577989999999943
21
-111.8155339999999995
0
LINE
8
BLACK
6
CONTINUOUS
10
151.4577989999999943
20
-111.8155339999999995
11
150.2577990000000057
21
-111.8155339999999995
0
LINE
8
BLACK
6
CONTINUOUS
10
150.2577990000000057
20
-111.8155339999999995
11
150.2577990000000057
21
-110.0155339999999882
0
LINE
8
BLACK
6
CONTINUOUS
10
150.2577990000000057
20
-110.0155339999999882
11
151.4577989999999943
21
-110.0155339999999882
0
LINE
8
BLACK
6
CONTINUOUS
10
151.4577989999999943
20
-110.0155339999999882
11
151.4577989999999943
21
-111.8155339999999995
0
LINE
8
BLACK
6
CONTINUOUS
10
175.6594659999999806
20
-111.2355340000000012
11
173.4594659999999919
21
-111.2355340000000012
0
LINE
8
BLACK
6
CONTINUOUS
10
173.4594659999999919
20
-111.2355340000000012
11
173.4594659999999919
21
-110.8355339999999956
0
LINE
8
BLACK
6
CONTINUOUS
10
173.4594659999999919
20
-110.8355339999999956
11
175.6594659999999806
21
-110.8355339999999956
0
LINE
8
BLACK
6
CONTINUOUS
10
175.6594659999999806
20
-110.8355339999999956
11
175.6594659999999806
21
-111.2355340000000012
0
LINE
8
BLACK
6
CONTINUOUS
10
154.2313549999999793
20
-109.8506869999999935
11
154.2962389999999857
21
-109.8940419999999989
0
LINE
8
BLACK
6
CONTINUOUS
10
154.2962389999999857
20
-109.8940419999999989
11
154.3395940000000053
21
-109.9589259999999911
0
LINE
8
BLACK
6
CONTINUOUS
10
154.3395940000000053
20
-109.9589259999999911
11
154.3548179999999945
21
-110.0354629999999929
0
LINE
8
BLACK
6
CONTINUOUS
10
154.3548179999999945
20
-110.0354629999999929
11
154.3548179999999945
21
-110.5854629999999901
0
LINE
8
BLACK
6
CONTINUOUS
10
154.3548179999999945
20
-110.5854629999999901
11
154.3395940000000053
21
-110.6619999999999919
0
LINE
8
BLACK
6
CONTINUOUS
10
154.3395940000000053
20
-110.6619999999999919
11
154.2962389999999857
21
-110.7268839999999983
0
LINE
8
BLACK
6
CONTINUOUS
10
154.2962389999999857
20
-110.7268839999999983
11
154.2313549999999793
21
-110.7702389999999895
0
LINE
8
BLACK
6
CONTINUOUS
10
154.2313549999999793
20
-110.7702389999999895
11
154.1548180000000059
21
-110.7854629999999929
0
LINE
8
BLACK
6
CONTINUOUS
10
154.1548180000000059
20
-110.7854629999999929
11
153.7548180000000002
21
-110.7854629999999929
0
LINE
8
BLACK
6
CONTINUOUS
10
153.7548180000000002
20
-110.7854629999999929
11
153.6782809999999984
21
-110.7702389999999895
0
LINE
8
BLACK
6
CONTINUOUS
10
153.6782809999999984
20
-110.7702389999999895
11
153.613396999999992
21
-110.7268839999999983
0
LINE
8
BLACK
6
CONTINUOUS
10
153.613396999999992
20
-110.7268839999999983
11
153.5700420000000008
21
-110.6619999999999919
0
LINE
8
BLACK
6
CONTINUOUS
10
153.5700420000000008
20
-110.6619999999999919
11
153.5548179999999832
21
-110.5854629999999901
0
LINE
8
BLACK
6
CONTINUOUS
10
153.5548179999999832
20
-110.5854629999999901
11
153.5548179999999832
21
-110.0354629999999929
0
LINE
8
BLACK
6
CONTINUOUS
10
153.5548179999999832
20
-110.0354629999999929
11
153.5700420000000008
21
-109.9589259999999911
0
LINE
8
BLACK
6
CONTINUOUS
10
153.5700420000000008
20
-109.9589259999999911
11
153.613396999999992
21
-109.8940419999999989
0
LINE
8
BLACK
6
CONTINUOUS
10
153.613396999999992
20
-109.8940419999999989
11
153.6782809999999984
21
-109.8506869999999935
0
LINE
8
BLACK
6
CONTINUOUS
10
153.6782809999999984
20
-109.8506869999999935
11
153.7548180000000002
21
-109.8354629999999901
0
LINE
8
BLACK
6
CONTINUOUS
10
153.7548180000000002
20
-109.8354629999999901
11
154.1548180000000059
21
-109.8354629999999901
0
LINE
8
BLACK
6
CONTINUOUS
10
154.1548180000000059
20
-109.8354629999999901
11
154.2313549999999793
21
-109.8506869999999935
0
LINE
8
BLACK
6
CONTINUOUS
10
155.881354999999985
20
-109.8506869999999935
11
155.9462389999999914
21
-109.8940419999999989
0
LINE
8
BLACK
6
CONTINUOUS
10
155.9462389999999914
20
-109.8940419999999989
11
155.9895939999999825
21
-109.9589259999999911
0
LINE
8
BLACK
6
CONTINUOUS
10
155.9895939999999825
20
-109.9589259999999911
11
156.0048180000000002
21
-110.0354629999999929
0
LINE
8
BLACK
6
CONTINUOUS
10
156.0048180000000002
20
-110.0354629999999929
11
156.0048180000000002
21
-110.5854629999999901
0
LINE
8
BLACK
6
CONTINUOUS
10
156.0048180000000002
20
-110.5854629999999901
11
155.9895939999999825
21
-110.6619999999999919
0
LINE
8
BLACK
6
CONTINUOUS
10
155.9895939999999825
20
-110.6619999999999919
11
155.9462389999999914
21
-110.7268839999999983
0
LINE
8
BLACK
6
CONTINUOUS
10
155.9462389999999914
20
-110.7268839999999983
11
155.881354999999985
21
-110.7702389999999895
0
LINE
8
BLACK
6
CONTINUOUS
10
155.881354999999985
20
-110.7702389999999895
11
155.8048179999999832
21
-110.7854629999999929
0
LINE
8
BLACK
6
CONTINUOUS
10
155.8048179999999832
20
-110.7854629999999929
11
155.4048180000000059
21
-110.7854629999999929
0
LINE
8
BLACK
6
CONTINUOUS
10
155.4048180000000059
20
-110.7854629999999929
11
155.328281000000004
21
-110.7702389999999895
0
LINE
8
BLACK
6
CONTINUOUS
10
155.328281000000004
20
-110.7702389999999895
11
155.2633969999999977
21
-110.7268839999999983
0
LINE
8
BLACK
6
CONTINUOUS
10
155.2633969999999977
20
-110.7268839999999983
11
155.2200420000000065
21
-110.6619999999999919
0
LINE
8
BLACK
6
CONTINUOUS
10
155.2200420000000065
20
-110.6619999999999919
11
155.2048179999999888
21
-110.5854629999999901
0
LINE
8
BLACK
6
CONTINUOUS
10
155.2048179999999888
20
-110.5854629999999901
11
155.2048179999999888
21
-110.0354629999999929
0
LINE
8
BLACK
6
CONTINUOUS
10
155.2048179999999888
20
-110.0354629999999929
11
155.2200420000000065
21
-109.9589259999999911
0
LINE
8
BLACK
6
CONTINUOUS
10
155.2200420000000065
20
-109.9589259999999911
11
155.2633969999999977
21
-109.8940419999999989
0
LINE
8
BLACK
6
CONTINUOUS
10
155.2633969999999977
20
-109.8940419999999989
11
155.328281000000004
21
-109.8506869999999935
0
LINE
8
BLACK
6
CONTINUOUS
10
155.328281000000004
20
-109.8506869999999935
11
155.4048180000000059
21
-109.8354629999999901
0
LINE
8
BLACK
6
CONTINUOUS
10
155.4048180000000059
20
-109.8354629999999901
11
155.8048179999999832
21
-109.8354629999999901
0
LINE
8
BLACK
6
CONTINUOUS
10
155.8048179999999832
20
-109.8354629999999901
11
155.881354999999985
21
-109.8506869999999935
0
LINE
8
BLACK
6
CONTINUOUS
10
158.5065769999999929
20
-109.9571929999999895
11
158.5714609999999993
21
-110.0005479999999949
0
LINE
8
BLACK
6
CONTINUOUS
10
158.5714609999999993
20
-110.0005479999999949
11
158.6148159999999905
21
-110.0654320000000013
0
LINE
8
BLACK
6
CONTINUOUS
10
158.6148159999999905
20
-110.0654320000000013
11
158.6300399999999797
21
-110.1419689999999889
0
LINE
8
BLACK
6
CONTINUOUS
10
158.6300399999999797
20
-110.1419689999999889
11
158.6300399999999797
21
-110.5419689999999946
0
LINE
8
BLACK
6
CONTINUOUS
10
158.6300399999999797
20
-110.5419689999999946
11
158.6148159999999905
21
-110.6185059999999964
0
LINE
8
BLACK
6
CONTINUOUS
10
158.6148159999999905
20
-110.6185059999999964
11
158.5714609999999993
21
-110.6833899999999886
0
LINE
8
BLACK
6
CONTINUOUS
10
158.5714609999999993
20
-110.6833899999999886
11
158.5065769999999929
21
-110.726744999999994
0
LINE
8
BLACK
6
CONTINUOUS
10
158.5065769999999929
20
-110.726744999999994
11
158.4300399999999911
21
-110.7419689999999974
0
LINE
8
BLACK
6
CONTINUOUS
10
158.4300399999999911
20
-110.7419689999999974
11
157.8800399999999797
21
-110.7419689999999974
0
LINE
8
BLACK
6
CONTINUOUS
10
157.8800399999999797
20
-110.7419689999999974
11
157.8035030000000063
21
-110.726744999999994
0
LINE
8
BLACK
6
CONTINUOUS
10
157.8035030000000063
20
-110.726744999999994
11
157.7386189999999999
21
-110.6833899999999886
0
LINE
8
BLACK
6
CONTINUOUS
10
157.7386189999999999
20
-110.6833899999999886
11
157.6952639999999803
21
-110.6185059999999964
0
LINE
8
BLACK
6
CONTINUOUS
10
157.6952639999999803
20
-110.6185059999999964
11
157.6800399999999911
21
-110.5419689999999946
0
LINE
8
BLACK
6
CONTINUOUS
10
157.6800399999999911
20
-110.5419689999999946
11
157.6800399999999911
21
-110.1419689999999889
0
LINE
8
BLACK
6
CONTINUOUS
10
157.6800399999999911
20
-110.1419689999999889
11
157.6952639999999803
21
-110.0654320000000013
0
LINE
8
BLACK
6
CONTINUOUS
10
157.6952639999999803
20
-110.0654320000000013
11
157.7386189999999999
21
-110.0005479999999949
0
LINE
8
BLACK
6
CONTINUOUS
10
157.7386189999999999
20
-110.0005479999999949
11
157.8035030000000063
21
-109.9571929999999895
0
LINE
8
BLACK
6
CONTINUOUS
10
157.8035030000000063
20
-109.9571929999999895
11
157.8800399999999797
21
-109.9419690000000003
0
LINE
8
BLACK
6
CONTINUOUS
10
157.8800399999999797
20
-109.9419690000000003
11
158.4300399999999911
21
-109.9419690000000003
0
LINE
8
BLACK
6
CONTINUOUS
10
158.4300399999999911
20
-109.9419690000000003
11
158.5065769999999929
21
-109.9571929999999895
0
LINE
8
BLACK
6
CONTINUOUS
10
160.1074250000000063
20
-109.8590959999999939
11
160.180419999999998
21
-109.9078699999999884
0
LINE
8
BLACK
6
CONTINUOUS
10
160.180419999999998
20
-109.9078699999999884
11
160.2291940000000068
21
-109.9808649999999943
0
LINE
8
BLACK
6
CONTINUOUS
10
160.2291940000000068
20
-109.9808649999999943
11
160.2463209999999947
21
-110.0669690000000003
0
LINE
8
BLACK
6
CONTINUOUS
10
160.2463209999999947
20
-110.0669690000000003
11
160.2463209999999947
21
-110.5169689999999889
0
LINE
8
BLACK
6
CONTINUOUS
10
160.2463209999999947
20
-110.5169689999999889
11
160.2291940000000068
21
-110.6030729999999949
0
LINE
8
BLACK
6
CONTINUOUS
10
160.2291940000000068
20
-110.6030729999999949
11
160.180419999999998
21
-110.6760680000000008
0
LINE
8
BLACK
6
CONTINUOUS
10
160.180419999999998
20
-110.6760680000000008
11
160.1074250000000063
21
-110.7248419999999953
0
LINE
8
BLACK
6
CONTINUOUS
10
160.1074250000000063
20
-110.7248419999999953
11
160.0213210000000004
21
-110.7419689999999974
0
LINE
8
BLACK
6
CONTINUOUS
10
160.0213210000000004
20
-110.7419689999999974
11
159.5213210000000004
21
-110.7419689999999974
0
LINE
8
BLACK
6
CONTINUOUS
10
159.5213210000000004
20
-110.7419689999999974
11
159.4352169999999944
21
-110.7248419999999953
0
LINE
8
BLACK
6
CONTINUOUS
10
159.4352169999999944
20
-110.7248419999999953
11
159.3622220000000027
21
-110.6760680000000008
0
LINE
8
BLACK
6
CONTINUOUS
10
159.3622220000000027
20
-110.6760680000000008
11
159.313447999999994
21
-110.6030729999999949
0
LINE
8
BLACK
6
CONTINUOUS
10
159.313447999999994
20
-110.6030729999999949
11
159.2963210000000061
21
-110.5169689999999889
0
LINE
8
BLACK
6
CONTINUOUS
10
159.2963210000000061
20
-110.5169689999999889
11
159.2963210000000061
21
-110.0669690000000003
0
LINE
8
BLACK
6
CONTINUOUS
10
159.2963210000000061
20
-110.0669690000000003
11
159.313447999999994
21
-109.9808649999999943
0
LINE
8
BLACK
6
CONTINUOUS
10
159.313447999999994
20
-109.9808649999999943
11
159.3622220000000027
21
-109.9078699999999884
0
LINE
8
BLACK
6
CONTINUOUS
10
159.3622220000000027
20
-109.9078699999999884
11
159.4352169999999944
21
-109.8590959999999939
0
LINE
8
BLACK
6
CONTINUOUS
10
159.4352169999999944
20
-109.8590959999999939
11
159.5213210000000004
21
-109.8419689999999918
0
LINE
8
BLACK
6
CONTINUOUS
10
159.5213210000000004
20
-109.8419689999999918
11
160.0213210000000004
21
-109.8419689999999918
0
LINE
8
BLACK
6
CONTINUOUS
10
160.0213210000000004
20
-109.8419689999999918
11
160.1074250000000063
21
-109.8590959999999939
0
LINE
8
BLACK
6
CONTINUOUS
10
175.6594659999999806
20
-110.5355339999999984
11
173.4594659999999919
21
-110.5355339999999984
0
LINE
8
BLACK
6
CONTINUOUS
10
173.4594659999999919
20
-110.5355339999999984
11
173.4594659999999919
21
-110.1355339999999927
0
LINE
8
BLACK
6
CONTINUOUS
10
173.4594659999999919
20
-110.1355339999999927
11
175.6594659999999806
21
-110.1355339999999927
0
LINE
8
BLACK
6
CONTINUOUS
10
175.6594659999999806
20
-110.1355339999999927
11
175.6594659999999806
21
-110.5355339999999984
0
LINE
8
BLACK
6
CONTINUOUS
10
175.6594659999999806
20
-109.8355339999999956
11
173.4594659999999919
21
-109.8355339999999956
0
LINE
8
BLACK
6
CONTINUOUS
10
173.4594659999999919
20
-109.8355339999999956
11
173.4594659999999919
21
-109.4355339999999899
0
LINE
8
BLACK
6
CONTINUOUS
10
173.4594659999999919
20
-109.4355339999999899
11
175.6594659999999806
21
-109.4355339999999899
0
LINE
8
BLACK
6
CONTINUOUS
10
175.6594659999999806
20
-109.4355339999999899
11
175.6594659999999806
21
-109.8355339999999956
0
LINE
8
BLACK
6
CONTINUOUS
10
203.8511330000000044
20
-109.7655339999999882
11
202.051132999999993
21
-109.7655339999999882
0
LINE
8
BLACK
6
CONTINUOUS
10
202.051132999999993
20
-109.7655339999999882
11
202.051132999999993
21
-108.5655339999999995
0
LINE
8
BLACK
6
CONTINUOUS
10
202.051132999999993
20
-108.5655339999999995
11
203.8511330000000044
21
-108.5655339999999995
0
LINE
8
BLACK
6
CONTINUOUS
10
203.8511330000000044
20
-108.5655339999999995
11
203.8511330000000044
21
-109.7655339999999882
0
LINE
8
BLACK
6
CONTINUOUS
10
211.8511330000000044
20
-109.7655339999999882
11
210.051132999999993
21
-109.7655339999999882
0
LINE
8
BLACK
6
CONTINUOUS
10
210.051132999999993
20
-109.7655339999999882
11
210.051132999999993
21
-108.5655339999999995
0
LINE
8
BLACK
6
CONTINUOUS
10
210.051132999999993
20
-108.5655339999999995
11
211.8511330000000044
21
-108.5655339999999995
0
LINE
8
BLACK
6
CONTINUOUS
10
211.8511330000000044
20
-108.5655339999999995
11
211.8511330000000044
21
-109.7655339999999882
0
LINE
8
BLACK
6
CONTINUOUS
10
160.1074250000000063
20
-108.3090959999999967
11
160.180419999999998
21
-108.3578699999999913
0
LINE
8
BLACK
6
CONTINUOUS
10
160.180419999999998
20
-108.3578699999999913
11
160.2291940000000068
21
-108.4308649999999972
0
LINE
8
BLACK
6
CONTINUOUS
10
160.2291940000000068
20
-108.4308649999999972
11
160.2463209999999947
21
-108.5169689999999889
0
LINE
8
BLACK
6
CONTINUOUS
10
160.2463209999999947
20
-108.5169689999999889
11
160.2463209999999947
21
-108.9669689999999918
0
LINE
8
BLACK
6
CONTINUOUS
10
160.2463209999999947
20
-108.9669689999999918
11
160.2291940000000068
21
-109.0530729999999977
0
LINE
8
BLACK
6
CONTINUOUS
10
160.2291940000000068
20
-109.0530729999999977
11
160.180419999999998
21
-109.1260679999999894
0
LINE
8
BLACK
6
CONTINUOUS
10
160.180419999999998
20
-109.1260679999999894
11
160.1074250000000063
21
-109.1748419999999982
0
LINE
8
BLACK
6
CONTINUOUS
10
160.1074250000000063
20
-109.1748419999999982
11
160.0213210000000004
21
-109.1919690000000003
0
LINE
8
BLACK
6
CONTINUOUS
10
160.0213210000000004
20
-109.1919690000000003
11
159.5213210000000004
21
-109.1919690000000003
0
LINE
8
BLACK
6
CONTINUOUS
10
159.5213210000000004
20
-109.1919690000000003
11
159.4352169999999944
21
-109.1748419999999982
0
LINE
8
BLACK
6
CONTINUOUS
10
159.4352169999999944
20
-109.1748419999999982
11
159.3622220000000027
21
-109.1260679999999894
0
LINE
8
BLACK
6
CONTINUOUS
10
159.3622220000000027
20
-109.1260679999999894
11
159.313447999999994
21
-109.0530729999999977
0
LINE
8
BLACK
6
CONTINUOUS
10
159.313447999999994
20
-109.0530729999999977
11
159.2963210000000061
21
-108.9669689999999918
0
LINE
8
BLACK
6
CONTINUOUS
10
159.2963210000000061
20
-108.9669689999999918
11
159.2963210000000061
21
-108.5169689999999889
0
LINE
8
BLACK
6
CONTINUOUS
10
159.2963210000000061
20
-108.5169689999999889
11
159.313447999999994
21
-108.4308649999999972
0
LINE
8
BLACK
6
CONTINUOUS
10
159.313447999999994
20
-108.4308649999999972
11
159.3622220000000027
21
-108.3578699999999913
0
LINE
8
BLACK
6
CONTINUOUS
10
159.3622220000000027
20
-108.3578699999999913
11
159.4352169999999944
21
-108.3090959999999967
0
LINE
8
BLACK
6
CONTINUOUS
10
159.4352169999999944
20
-108.3090959999999967
11
159.5213210000000004
21
-108.2919689999999946
0
LINE
8
BLACK
6
CONTINUOUS
10
159.5213210000000004
20
-108.2919689999999946
11
160.0213210000000004
21
-108.2919689999999946
0
LINE
8
BLACK
6
CONTINUOUS
10
160.0213210000000004
20
-108.2919689999999946
11
160.1074250000000063
21
-108.3090959999999967
0
LINE
8
BLACK
6
CONTINUOUS
10
175.6594659999999806
20
-109.1355339999999927
11
173.4594659999999919
21
-109.1355339999999927
0
LINE
8
BLACK
6
CONTINUOUS
10
173.4594659999999919
20
-109.1355339999999927
11
173.4594659999999919
21
-108.7355340000000012
0
LINE
8
BLACK
6
CONTINUOUS
10
173.4594659999999919
20
-108.7355340000000012
11
175.6594659999999806
21
-108.7355340000000012
0
LINE
8
BLACK
6
CONTINUOUS
10
175.6594659999999806
20
-108.7355340000000012
11
175.6594659999999806
21
-109.1355339999999927
0
LINE
8
BLACK
6
CONTINUOUS
10
158.5065769999999929
20
-108.3071929999999981
11
158.5714609999999993
21
-108.3505479999999892
0
LINE
8
BLACK
6
CONTINUOUS
10
158.5714609999999993
20
-108.3505479999999892
11
158.6148159999999905
21
-108.4154319999999956
0
LINE
8
BLACK
6
CONTINUOUS
10
158.6148159999999905
20
-108.4154319999999956
11
158.6300399999999797
21
-108.4919689999999974
0
LINE
8
BLACK
6
CONTINUOUS
10
158.6300399999999797
20
-108.4919689999999974
11
158.6300399999999797
21
-108.8919689999999889
0
LINE
8
BLACK
6
CONTINUOUS
10
158.6300399999999797
20
-108.8919689999999889
11
158.6148159999999905
21
-108.9685059999999908
0
LINE
8
BLACK
6
CONTINUOUS
10
158.6148159999999905
20
-108.9685059999999908
11
158.5714609999999993
21
-109.0333899999999971
0
LINE
8
BLACK
6
CONTINUOUS
10
158.5714609999999993
20
-109.0333899999999971
11
158.5065769999999929
21
-109.0767449999999883
0
LINE
8
BLACK
6
CONTINUOUS
10
158.5065769999999929
20
-109.0767449999999883
11
158.4300399999999911
21
-109.0919689999999918
0
LINE
8
BLACK
6
CONTINUOUS
10
158.4300399999999911
20
-109.0919689999999918
11
157.8800399999999797
21
-109.0919689999999918
0
LINE
8
BLACK
6
CONTINUOUS
10
157.8800399999999797
20
-109.0919689999999918
11
157.8035030000000063
21
-109.0767449999999883
0
LINE
8
BLACK
6
CONTINUOUS
10
157.8035030000000063
20
-109.0767449999999883
11
157.7386189999999999
21
-109.0333899999999971
0
LINE
8
BLACK
6
CONTINUOUS
10
157.7386189999999999
20
-109.0333899999999971
11
157.6952639999999803
21
-108.9685059999999908
0
LINE
8
BLACK
6
CONTINUOUS
10
157.6952639999999803
20
-108.9685059999999908
11
157.6800399999999911
21
-108.8919689999999889
0
LINE
8
BLACK
6
CONTINUOUS
10
157.6800399999999911
20
-108.8919689999999889
11
157.6800399999999911
21
-108.4919689999999974
0
LINE
8
BLACK
6
CONTINUOUS
10
157.6800399999999911
20
-108.4919689999999974
11
157.6952639999999803
21
-108.4154319999999956
0
LINE
8
BLACK
6
CONTINUOUS
10
157.6952639999999803
20
-108.4154319999999956
11
157.7386189999999999
21
-108.3505479999999892
0
LINE
8
BLACK
6
CONTINUOUS
10
157.7386189999999999
20
-108.3505479999999892
11
157.8035030000000063
21
-108.3071929999999981
0
LINE
8
BLACK
6
CONTINUOUS
10
157.8035030000000063
20
-108.3071929999999981
11
157.8800399999999797
21
-108.2919689999999946
0
LINE
8
BLACK
6
CONTINUOUS
10
157.8800399999999797
20
-108.2919689999999946
11
158.4300399999999911
21
-108.2919689999999946
0
LINE
8
BLACK
6
CONTINUOUS
10
158.4300399999999911
20
-108.2919689999999946
11
158.5065769999999929
21
-108.3071929999999981
0
LINE
8
BLACK
6
CONTINUOUS
10
154.1648179999999968
20
-109.0842789999999951
11
153.0948180000000036
21
-109.0842789999999951
0
LINE
8
BLACK
6
CONTINUOUS
10
153.0948180000000036
20
-109.0842789999999951
11
153.0948180000000036
21
-108.554278999999994
0
LINE
8
BLACK
6
CONTINUOUS
10
153.0948180000000036
20
-108.554278999999994
11
154.1648179999999968
21
-108.554278999999994
0
LINE
8
BLACK
6
CONTINUOUS
10
154.1648179999999968
20
-108.554278999999994
11
154.1648179999999968
21
-109.0842789999999951
0
LINE
8
BLACK
6
CONTINUOUS
10
156.4648179999999797
20
-109.0842789999999951
11
155.3948179999999866
21
-109.0842789999999951
0
LINE
8
BLACK
6
CONTINUOUS
10
155.3948179999999866
20
-109.0842789999999951
11
155.3948179999999866
21
-108.554278999999994
0
LINE
8
BLACK
6
CONTINUOUS
10
155.3948179999999866
20
-108.554278999999994
11
156.4648179999999797
21
-108.554278999999994
0
LINE
8
BLACK
6
CONTINUOUS
10
156.4648179999999797
20
-108.554278999999994
11
156.4648179999999797
21
-109.0842789999999951
0
LINE
8
BLACK
6
CONTINUOUS
10
175.6594659999999806
20
-108.4355339999999899
11
173.4594659999999919
21
-108.4355339999999899
0
LINE
8
BLACK
6
CONTINUOUS
10
173.4594659999999919
20
-108.4355339999999899
11
173.4594659999999919
21
-108.0355339999999984
0
LINE
8
BLACK
6
CONTINUOUS
10
173.4594659999999919
20
-108.0355339999999984
11
175.6594659999999806
21
-108.0355339999999984
0
LINE
8
BLACK
6
CONTINUOUS
10
175.6594659999999806
20
-108.0355339999999984
11
175.6594659999999806
21
-108.4355339999999899
0
LINE
8
BLACK
6
CONTINUOUS
10
154.1648179999999968
20
-108.1342789999999923
11
153.0948180000000036
21
-108.1342789999999923
0
LINE
8
BLACK
6
CONTINUOUS
10
153.0948180000000036
20
-108.1342789999999923
11
153.0948180000000036
21
-107.6042789999999911
0
LINE
8
BLACK
6
CONTINUOUS
10
153.0948180000000036
20
-107.6042789999999911
11
154.1648179999999968
21
-107.6042789999999911
0
LINE
8
BLACK
6
CONTINUOUS
10
154.1648179999999968
20
-107.6042789999999911
11
154.1648179999999968
21
-108.1342789999999923
0
LINE
8
BLACK
6
CONTINUOUS
10
156.4648179999999797
20
-108.1342789999999923
11
155.3948179999999866
21
-108.1342789999999923
0
LINE
8
BLACK
6
CONTINUOUS
10
155.3948179999999866
20
-108.1342789999999923
11
155.3948179999999866
21
-107.6042789999999911
0
LINE
8
BLACK
6
CONTINUOUS
10
155.3948179999999866
20
-107.6042789999999911
11
156.4648179999999797
21
-107.6042789999999911
0
LINE
8
BLACK
6
CONTINUOUS
10
156.4648179999999797
20
-107.6042789999999911
11
156.4648179999999797
21
-108.1342789999999923
0
LINE
8
BLACK
6
CONTINUOUS
10
175.6594659999999806
20
-107.7355340000000012
11
173.4594659999999919
21
-107.7355340000000012
0
LINE
8
BLACK
6
CONTINUOUS
10
173.4594659999999919
20
-107.7355340000000012
11
173.4594659999999919
21
-107.3355339999999956
0
LINE
8
BLACK
6
CONTINUOUS
10
173.4594659999999919
20
-107.3355339999999956
11
175.6594659999999806
21
-107.3355339999999956
0
LINE
8
BLACK
6
CONTINUOUS
10
175.6594659999999806
20
-107.3355339999999956
11
175.6594659999999806
21
-107.7355340000000012
0
LINE
8
BLACK
6
CONTINUOUS
10
158.4992839999999887
20
-106.7381010000000003
11
158.5722789999999804
21
-106.7868749999999949
0
LINE
8
BLACK
6
CONTINUOUS
10
158.5722789999999804
20
-106.7868749999999949
11
158.6210529999999892
21
-106.8598700000000008
0
LINE
8
BLACK
6
CONTINUOUS
10
158.6210529999999892
20
-106.8598700000000008
11
158.6381800000000055
21
-106.9459739999999925
0
LINE
8
BLACK
6
CONTINUOUS
10
158.6381800000000055
20
-106.9459739999999925
11
158.6381800000000055
21
-107.4459739999999925
0
LINE
8
BLACK
6
CONTINUOUS
10
158.6381800000000055
20
-107.4459739999999925
11
158.6210529999999892
21
-107.5320779999999985
0
LINE
8
BLACK
6
CONTINUOUS
10
158.6210529999999892
20
-107.5320779999999985
11
158.5722789999999804
21
-107.6050729999999902
0
LINE
8
BLACK
6
CONTINUOUS
10
158.5722789999999804
20
-107.6050729999999902
11
158.4992839999999887
21
-107.653846999999999
0
LINE
8
BLACK
6
CONTINUOUS
10
158.4992839999999887
20
-107.653846999999999
11
158.4131799999999828
21
-107.6709740000000011
0
LINE
8
BLACK
6
CONTINUOUS
10
158.4131799999999828
20
-107.6709740000000011
11
157.9631799999999942
21
-107.6709740000000011
0
LINE
8
BLACK
6
CONTINUOUS
10
157.9631799999999942
20
-107.6709740000000011
11
157.8770759999999882
21
-107.653846999999999
0
LINE
8
BLACK
6
CONTINUOUS
10
157.8770759999999882
20
-107.653846999999999
11
157.8040809999999965
21
-107.6050729999999902
0
LINE
8
BLACK
6
CONTINUOUS
10
157.8040809999999965
20
-107.6050729999999902
11
157.7553069999999877
21
-107.5320779999999985
0
LINE
8
BLACK
6
CONTINUOUS
10
157.7553069999999877
20
-107.5320779999999985
11
157.7381799999999998
21
-107.4459739999999925
0
LINE
8
BLACK
6
CONTINUOUS
10
157.7381799999999998
20
-107.4459739999999925
11
157.7381799999999998
21
-106.9459739999999925
0
LINE
8
BLACK
6
CONTINUOUS
10
157.7381799999999998
20
-106.9459739999999925
11
157.7553069999999877
21
-106.8598700000000008
0
LINE
8
BLACK
6
CONTINUOUS
10
157.7553069999999877
20
-106.8598700000000008
11
157.8040809999999965
21
-106.7868749999999949
0
LINE
8
BLACK
6
CONTINUOUS
10
157.8040809999999965
20
-106.7868749999999949
11
157.8770759999999882
21
-106.7381010000000003
0
LINE
8
BLACK
6
CONTINUOUS
10
157.8770759999999882
20
-106.7381010000000003
11
157.9631799999999942
21
-106.7209739999999982
0
LINE
8
BLACK
6
CONTINUOUS
10
157.9631799999999942
20
-106.7209739999999982
11
158.4131799999999828
21
-106.7209739999999982
0
LINE
8
BLACK
6
CONTINUOUS
10
158.4131799999999828
20
-106.7209739999999982
11
158.4992839999999887
21
-106.7381010000000003
0
LINE
8
BLACK
6
CONTINUOUS
10
160.0492840000000001
20
-106.7381010000000003
11
160.1222789999999918
21
-106.7868749999999949
0
LINE
8
BLACK
6
CONTINUOUS
10
160.1222789999999918
20
-106.7868749999999949
11
160.1710530000000006
21
-106.8598700000000008
0
LINE
8
BLACK
6
CONTINUOUS
10
160.1710530000000006
20
-106.8598700000000008
11
160.1881799999999885
21
-106.9459739999999925
0
LINE
8
BLACK
6
CONTINUOUS
10
160.1881799999999885
20
-106.9459739999999925
11
160.1881799999999885
21
-107.4459739999999925
0
LINE
8
BLACK
6
CONTINUOUS
10
160.1881799999999885
20
-107.4459739999999925
11
160.1710530000000006
21
-107.5320779999999985
0
LINE
8
BLACK
6
CONTINUOUS
10
160.1710530000000006
20
-107.5320779999999985
11
160.1222789999999918
21
-107.6050729999999902
0
LINE
8
BLACK
6
CONTINUOUS
10
160.1222789999999918
20
-107.6050729999999902
11
160.0492840000000001
21
-107.653846999999999
0
LINE
8
BLACK
6
CONTINUOUS
10
160.0492840000000001
20
-107.653846999999999
11
159.9631799999999942
21
-107.6709740000000011
0
LINE
8
BLACK
6
CONTINUOUS
10
159.9631799999999942
20
-107.6709740000000011
11
159.5131800000000055
21
-107.6709740000000011
0
LINE
8
BLACK
6
CONTINUOUS
10
159.5131800000000055
20
-107.6709740000000011
11
159.4270759999999996
21
-107.653846999999999
0
LINE
8
BLACK
6
CONTINUOUS
10
159.4270759999999996
20
-107.653846999999999
11
159.3540809999999794
21
-107.6050729999999902
0
LINE
8
BLACK
6
CONTINUOUS
10
159.3540809999999794
20
-107.6050729999999902
11
159.3053069999999991
21
-107.5320779999999985
0
LINE
8
BLACK
6
CONTINUOUS
10
159.3053069999999991
20
-107.5320779999999985
11
159.2881799999999828
21
-107.4459739999999925
0
LINE
8
BLACK
6
CONTINUOUS
10
159.2881799999999828
20
-107.4459739999999925
11
159.2881799999999828
21
-106.9459739999999925
0
LINE
8
BLACK
6
CONTINUOUS
10
159.2881799999999828
20
-106.9459739999999925
11
159.3053069999999991
21
-106.8598700000000008
0
LINE
8
BLACK
6
CONTINUOUS
10
159.3053069999999991
20
-106.8598700000000008
11
159.3540809999999794
21
-106.7868749999999949
0
LINE
8
BLACK
6
CONTINUOUS
10
159.3540809999999794
20
-106.7868749999999949
11
159.4270759999999996
21
-106.7381010000000003
0
LINE
8
BLACK
6
CONTINUOUS
10
159.4270759999999996
20
-106.7381010000000003
11
159.5131800000000055
21
-106.7209739999999982
0
LINE
8
BLACK
6
CONTINUOUS
10
159.5131800000000055
20
-106.7209739999999982
11
159.9631799999999942
21
-106.7209739999999982
0
LINE
8
BLACK
6
CONTINUOUS
10
159.9631799999999942
20
-106.7209739999999982
11
160.0492840000000001
21
-106.7381010000000003
0
LINE
8
BLACK
6
CONTINUOUS
10
154.1648179999999968
20
-107.1842789999999894
11
153.0948180000000036
21
-107.1842789999999894
0
LINE
8
BLACK
6
CONTINUOUS
10
153.0948180000000036
20
-107.1842789999999894
11
153.0948180000000036
21
-106.6542789999999883
0
LINE
8
BLACK
6
CONTINUOUS
10
153.0948180000000036
20
-106.6542789999999883
11
154.1648179999999968
21
-106.6542789999999883
0
LINE
8
BLACK
6
CONTINUOUS
10
154.1648179999999968
20
-106.6542789999999883
11
154.1648179999999968
21
-107.1842789999999894
0
LINE
8
BLACK
6
CONTINUOUS
10
156.4648179999999797
20
-107.1842789999999894
11
155.3948179999999866
21
-107.1842789999999894
0
LINE
8
BLACK
6
CONTINUOUS
10
155.3948179999999866
20
-107.1842789999999894
11
155.3948179999999866
21
-106.6542789999999883
0
LINE
8
BLACK
6
CONTINUOUS
10
155.3948179999999866
20
-106.6542789999999883
11
156.4648179999999797
21
-106.6542789999999883
0
LINE
8
BLACK
6
CONTINUOUS
10
156.4648179999999797
20
-106.6542789999999883
11
156.4648179999999797
21
-107.1842789999999894
0
LINE
8
BLACK
6
CONTINUOUS
10
175.6594659999999806
20
-107.0355339999999984
11
173.4594659999999919
21
-107.0355339999999984
0
LINE
8
BLACK
6
CONTINUOUS
10
173.4594659999999919
20
-107.0355339999999984
11
173.4594659999999919
21
-106.6355339999999927
0
LINE
8
BLACK
6
CONTINUOUS
10
173.4594659999999919
20
-106.6355339999999927
11
175.6594659999999806
21
-106.6355339999999927
0
LINE
8
BLACK
6
CONTINUOUS
10
175.6594659999999806
20
-106.6355339999999927
11
175.6594659999999806
21
-107.0355339999999984
0
LINE
8
BLACK
6
CONTINUOUS
10
175.6594659999999806
20
-106.3355339999999956
11
173.4594659999999919
21
-106.3355339999999956
0
LINE
8
BLACK
6
CONTINUOUS
10
173.4594659999999919
20
-106.3355339999999956
11
173.4594659999999919
21
-105.9355339999999899
0
LINE
8
BLACK
6
CONTINUOUS
10
173.4594659999999919
20
-105.9355339999999899
11
175.6594659999999806
21
-105.9355339999999899
0
LINE
8
BLACK
6
CONTINUOUS
10
175.6594659999999806
20
-105.9355339999999899
11
175.6594659999999806
21
-106.3355339999999956
0
LINE
8
BLACK
6
CONTINUOUS
10
155.7645719999999869
20
-105.7105899999999963
11
152.7645719999999869
21
-105.7105899999999963
0
LINE
8
BLACK
6
CONTINUOUS
10
152.7645719999999869
20
-105.7105899999999963
11
152.7645719999999869
21
-100.2105899999999963
0
LINE
8
BLACK
6
CONTINUOUS
10
152.7645719999999869
20
-100.2105899999999963
11
155.7645719999999869
21
-100.2105899999999963
0
LINE
8
BLACK
6
CONTINUOUS
10
155.7645719999999869
20
-100.2105899999999963
11
155.7645719999999869
21
-105.7105899999999963
0
LINE
8
BLACK
6
CONTINUOUS
10
160.4245719999999835
20
-105.7105899999999963
11
157.4245719999999835
21
-105.7105899999999963
0
LINE
8
BLACK
6
CONTINUOUS
10
157.4245719999999835
20
-105.7105899999999963
11
157.4245719999999835
21
-100.2105899999999963
0
LINE
8
BLACK
6
CONTINUOUS
10
157.4245719999999835
20
-100.2105899999999963
11
160.4245719999999835
21
-100.2105899999999963
0
LINE
8
BLACK
6
CONTINUOUS
10
160.4245719999999835
20
-100.2105899999999963
11
160.4245719999999835
21
-105.7105899999999963
0
LINE
8
BLACK
6
CONTINUOUS
10
175.6594659999999806
20
-105.6355339999999927
11
173.4594659999999919
21
-105.6355339999999927
0
LINE
8
BLACK
6
CONTINUOUS
10
173.4594659999999919
20
-105.6355339999999927
11
173.4594659999999919
21
-105.2355340000000012
0
LINE
8
BLACK
6
CONTINUOUS
10
173.4594659999999919
20
-105.2355340000000012
11
175.6594659999999806
21
-105.2355340000000012
0
LINE
8
BLACK
6
CONTINUOUS
10
175.6594659999999806
20
-105.2355340000000012
11
175.6594659999999806
21
-105.6355339999999927
0
LINE
8
BLACK
6
CONTINUOUS
10
203.8511330000000044
20
-105.2655339999999882
11
202.051132999999993
21
-105.2655339999999882
0
LINE
8
BLACK
6
CONTINUOUS
10
202.051132999999993
20
-105.2655339999999882
11
202.051132999999993
21
-104.0655339999999995
0
LINE
8
BLACK
6
CONTINUOUS
10
202.051132999999993
20
-104.0655339999999995
11
203.8511330000000044
21
-104.0655339999999995
0
LINE
8
BLACK
6
CONTINUOUS
10
203.8511330000000044
20
-104.0655339999999995
11
203.8511330000000044
21
-105.2655339999999882
0
LINE
8
BLACK
6
CONTINUOUS
10
211.8511330000000044
20
-105.2655339999999882
11
210.051132999999993
21
-105.2655339999999882
0
LINE
8
BLACK
6
CONTINUOUS
10
210.051132999999993
20
-105.2655339999999882
11
210.051132999999993
21
-104.0655339999999995
0
LINE
8
BLACK
6
CONTINUOUS
10
210.051132999999993
20
-104.0655339999999995
11
211.8511330000000044
21
-104.0655339999999995
0
LINE
8
BLACK
6
CONTINUOUS
10
211.8511330000000044
20
-104.0655339999999995
11
211.8511330000000044
21
-105.2655339999999882
0
LINE
8
BLACK
6
CONTINUOUS
10
175.6594659999999806
20
-104.9355339999999899
11
173.4594659999999919
21
-104.9355339999999899
0
LINE
8
BLACK
6
CONTINUOUS
10
173.4594659999999919
20
-104.9355339999999899
11
173.4594659999999919
21
-104.5355339999999984
0
LINE
8
BLACK
6
CONTINUOUS
10
173.4594659999999919
20
-104.5355339999999984
11
175.6594659999999806
21
-104.5355339999999984
0
LINE
8
BLACK
6
CONTINUOUS
10
175.6594659999999806
20
-104.5355339999999984
11
175.6594659999999806
21
-104.9355339999999899
0
LINE
8
BLACK
6
CONTINUOUS
10
175.6594659999999806
20
-104.2355340000000012
11
173.4594659999999919
21
-104.2355340000000012
0
LINE
8
BLACK
6
CONTINUOUS
10
173.4594659999999919
20
-104.2355340000000012
11
173.4594659999999919
21
-103.8355339999999956
0
LINE
8
BLACK
6
CONTINUOUS
10
173.4594659999999919
20
-103.8355339999999956
11
175.6594659999999806
21
-103.8355339999999956
0
LINE
8
BLACK
6
CONTINUOUS
10
175.6594659999999806
20
-103.8355339999999956
11
175.6594659999999806
21
-104.2355340000000012
0
LINE
8
BLACK
6
CONTINUOUS
10
146.9577989999999943
20
-103.8155339999999995
11
145.7577990000000057
21
-103.8155339999999995
0
LINE
8
BLACK
6
CONTINUOUS
10
145.7577990000000057
20
-103.8155339999999995
11
145.7577990000000057
21
-102.0155340000000024
0
LINE
8
BLACK
6
CONTINUOUS
10
145.7577990000000057
20
-102.0155340000000024
11
146.9577989999999943
21
-102.0155340000000024
0
LINE
8
BLACK
6
CONTINUOUS
10
146.9577989999999943
20
-102.0155340000000024
11
146.9577989999999943
21
-103.8155339999999995
0
LINE
8
BLACK
6
CONTINUOUS
10
151.4577989999999943
20
-103.8155339999999995
11
150.2577990000000057
21
-103.8155339999999995
0
LINE
8
BLACK
6
CONTINUOUS
10
150.2577990000000057
20
-103.8155339999999995
11
150.2577990000000057
21
-102.0155340000000024
0
LINE
8
BLACK
6
CONTINUOUS
10
150.2577990000000057
20
-102.0155340000000024
11
151.4577989999999943
21
-102.0155340000000024
0
LINE
8
BLACK
6
CONTINUOUS
10
151.4577989999999943
20
-102.0155340000000024
11
151.4577989999999943
21
-103.8155339999999995
0
LINE
8
BLACK
6
CONTINUOUS
10
175.6594659999999806
20
-103.5355339999999984
11
173.4594659999999919
21
-103.5355339999999984
0
LINE
8
BLACK
6
CONTINUOUS
10
173.4594659999999919
20
-103.5355339999999984
11
173.4594659999999919
21
-103.1355339999999927
0
LINE
8
BLACK
6
CONTINUOUS
10
173.4594659999999919
20
-103.1355339999999927
11
175.6594659999999806
21
-103.1355339999999927
0
LINE
8
BLACK
6
CONTINUOUS
10
175.6594659999999806
20
-103.1355339999999927
11
175.6594659999999806
21
-103.5355339999999984
0
LINE
8
BLACK
6
CONTINUOUS
10
175.6594659999999806
20
-102.8355339999999956
11
173.4594659999999919
21
-102.8355339999999956
0
LINE
8
BLACK
6
CONTINUOUS
10
173.4594659999999919
20
-102.8355339999999956
11
173.4594659999999919
21
-102.4355339999999899
0
LINE
8
BLACK
6
CONTINUOUS
10
173.4594659999999919
20
-102.4355339999999899
11
175.6594659999999806
21
-102.4355339999999899
0
LINE
8
BLACK
6
CONTINUOUS
10
175.6594659999999806
20
-102.4355339999999899
11
175.6594659999999806
21
-102.8355339999999956
0
LINE
8
BLACK
6
CONTINUOUS
10
159.0240540000000067
20
-98.9575540000000018
11
159.072716999999983
21
-98.9900699999999887
0
LINE
8
BLACK
6
CONTINUOUS
10
159.072716999999983
20
-98.9900699999999887
11
159.1052329999999984
21
-99.0387329999999935
0
LINE
8
BLACK
6
CONTINUOUS
10
159.1052329999999984
20
-99.0387329999999935
11
159.1166509999999903
21
-99.0961360000000013
0
LINE
8
BLACK
6
CONTINUOUS
10
159.1166509999999903
20
-99.0961360000000013
11
159.1166509999999903
21
-99.3961359999999985
0
LINE
8
BLACK
6
CONTINUOUS
10
159.1166509999999903
20
-99.3961359999999985
11
159.1052329999999984
21
-99.4535389999999921
0
LINE
8
BLACK
6
CONTINUOUS
10
159.1052329999999984
20
-99.4535389999999921
11
159.072716999999983
21
-99.5022019999999969
0
LINE
8
BLACK
6
CONTINUOUS
10
159.072716999999983
20
-99.5022019999999969
11
159.0240540000000067
21
-99.534717999999998
0
LINE
8
BLACK
6
CONTINUOUS
10
159.0240540000000067
20
-99.534717999999998
11
158.9666509999999846
21
-99.54613599999999
0
LINE
8
BLACK
6
CONTINUOUS
10
158.9666509999999846
20
-99.54613599999999
11
157.7916510000000017
21
-99.54613599999999
0
LINE
8
BLACK
6
CONTINUOUS
10
157.7916510000000017
20
-99.54613599999999
11
157.7342479999999796
21
-99.534717999999998
0
LINE
8
BLACK
6
CONTINUOUS
10
157.7342479999999796
20
-99.534717999999998
11
157.6855850000000032
21
-99.5022019999999969
0
LINE
8
BLACK
6
CONTINUOUS
10
157.6855850000000032
20
-99.5022019999999969
11
157.6530689999999879
21
-99.4535389999999921
0
LINE
8
BLACK
6
CONTINUOUS
10
157.6530689999999879
20
-99.4535389999999921
11
157.641650999999996
21
-99.3961359999999985
0
LINE
8
BLACK
6
CONTINUOUS
10
157.641650999999996
20
-99.3961359999999985
11
157.641650999999996
21
-99.0961360000000013
0
LINE
8
BLACK
6
CONTINUOUS
10
157.641650999999996
20
-99.0961360000000013
11
157.6530689999999879
21
-99.0387329999999935
0
LINE
8
BLACK
6
CONTINUOUS
10
157.6530689999999879
20
-99.0387329999999935
11
157.6855850000000032
21
-98.9900699999999887
0
LINE
8
BLACK
6
CONTINUOUS
10
157.6855850000000032
20
-98.9900699999999887
11
157.7342479999999796
21
-98.9575540000000018
0
LINE
8
BLACK
6
CONTINUOUS
10
157.7342479999999796
20
-98.9575540000000018
11
157.7916510000000017
21
-98.9461359999999956
0
LINE
8
BLACK
6
CONTINUOUS
10
157.7916510000000017
20
-98.9461359999999956
11
158.9666509999999846
21
-98.9461359999999956
0
LINE
8
BLACK
6
CONTINUOUS
10
158.9666509999999846
20
-98.9461359999999956
11
159.0240540000000067
21
-98.9575540000000018
0
LINE
8
BLACK
6
CONTINUOUS
10
160.8990540000000067
20
-98.007553999999999
11
160.947716999999983
21
-98.0400700000000001
0
LINE
8
BLACK
6
CONTINUOUS
10
160.947716999999983
20
-98.0400700000000001
11
160.9802329999999984
21
-98.0887329999999906
0
LINE
8
BLACK
6
CONTINUOUS
10
160.9802329999999984
20
-98.0887329999999906
11
160.9916509999999903
21
-98.1461359999999985
0
LINE
8
BLACK
6
CONTINUOUS
10
160.9916509999999903
20
-98.1461359999999985
11
160.9916509999999903
21
-98.4461359999999956
0
LINE
8
BLACK
6
CONTINUOUS
10
160.9916509999999903
20
-98.4461359999999956
11
160.9802329999999984
21
-98.5035389999999893
0
LINE
8
BLACK
6
CONTINUOUS
10
160.9802329999999984
20
-98.5035389999999893
11
160.947716999999983
21
-98.5522019999999941
0
LINE
8
BLACK
6
CONTINUOUS
10
160.947716999999983
20
-98.5522019999999941
11
160.8990540000000067
21
-98.5847179999999952
0
LINE
8
BLACK
6
CONTINUOUS
10
160.8990540000000067
20
-98.5847179999999952
11
160.8416509999999846
21
-98.5961360000000013
0
LINE
8
BLACK
6
CONTINUOUS
10
160.8416509999999846
20
-98.5961360000000013
11
159.6666510000000017
21
-98.5961360000000013
0
LINE
8
BLACK
6
CONTINUOUS
10
159.6666510000000017
20
-98.5961360000000013
11
159.6092479999999796
21
-98.5847179999999952
0
LINE
8
BLACK
6
CONTINUOUS
10
159.6092479999999796
20
-98.5847179999999952
11
159.5605850000000032
21
-98.5522019999999941
0
LINE
8
BLACK
6
CONTINUOUS
10
159.5605850000000032
20
-98.5522019999999941
11
159.5280689999999879
21
-98.5035389999999893
0
LINE
8
BLACK
6
CONTINUOUS
10
159.5280689999999879
20
-98.5035389999999893
11
159.516650999999996
21
-98.4461359999999956
0
LINE
8
BLACK
6
CONTINUOUS
10
159.516650999999996
20
-98.4461359999999956
11
159.516650999999996
21
-98.1461359999999985
0
LINE
8
BLACK
6
CONTINUOUS
10
159.516650999999996
20
-98.1461359999999985
11
159.5280689999999879
21
-98.0887329999999906
0
LINE
8
BLACK
6
CONTINUOUS
10
159.5280689999999879
20
-98.0887329999999906
11
159.5605850000000032
21
-98.0400700000000001
0
LINE
8
BLACK
6
CONTINUOUS
10
159.5605850000000032
20
-98.0400700000000001
11
159.6092479999999796
21
-98.007553999999999
0
LINE
8
BLACK
6
CONTINUOUS
10
159.6092479999999796
20
-98.007553999999999
11
159.6666510000000017
21
-97.9961359999999928
0
LINE
8
BLACK
6
CONTINUOUS
10
159.6666510000000017
20
-97.9961359999999928
11
160.8416509999999846
21
-97.9961359999999928
0
LINE
8
BLACK
6
CONTINUOUS
10
160.8416509999999846
20
-97.9961359999999928
11
160.8990540000000067
21
-98.007553999999999
0
LINE
8
BLACK
6
CONTINUOUS
10
146.0461919999999907
20
-97.1273070000000018
11
146.1110759999999971
21
-97.170661999999993
0
LINE
8
BLACK
6
CONTINUOUS
10
146.1110759999999971
20
-97.170661999999993
11
146.1544309999999882
21
-97.2355459999999994
0
LINE
8
BLACK
6
CONTINUOUS
10
146.1544309999999882
20
-97.2355459999999994
11
146.1696550000000059
21
-97.3120830000000012
0
LINE
8
BLACK
6
CONTINUOUS
10
146.1696550000000059
20
-97.3120830000000012
11
146.1696550000000059
21
-97.8620829999999984
0
LINE
8
BLACK
6
CONTINUOUS
10
146.1696550000000059
20
-97.8620829999999984
11
146.1544309999999882
21
-97.9386200000000002
0
LINE
8
BLACK
6
CONTINUOUS
10
146.1544309999999882
20
-97.9386200000000002
11
146.1110759999999971
21
-98.0035039999999924
0
LINE
8
BLACK
6
CONTINUOUS
10
146.1110759999999971
20
-98.0035039999999924
11
146.0461919999999907
21
-98.0468589999999978
0
LINE
8
BLACK
6
CONTINUOUS
10
146.0461919999999907
20
-98.0468589999999978
11
145.9696549999999888
21
-98.0620830000000012
0
LINE
8
BLACK
6
CONTINUOUS
10
145.9696549999999888
20
-98.0620830000000012
11
145.5696549999999831
21
-98.0620830000000012
0
LINE
8
BLACK
6
CONTINUOUS
10
145.5696549999999831
20
-98.0620830000000012
11
145.4931179999999813
21
-98.0468589999999978
0
LINE
8
BLACK
6
CONTINUOUS
10
145.4931179999999813
20
-98.0468589999999978
11
145.4282340000000033
21
-98.0035039999999924
0
LINE
8
BLACK
6
CONTINUOUS
10
145.4282340000000033
20
-98.0035039999999924
11
145.3848789999999838
21
-97.9386200000000002
0
LINE
8
BLACK
6
CONTINUOUS
10
145.3848789999999838
20
-97.9386200000000002
11
145.3696549999999945
21
-97.8620829999999984
0
LINE
8
BLACK
6
CONTINUOUS
10
145.3696549999999945
20
-97.8620829999999984
11
145.3696549999999945
21
-97.3120830000000012
0
LINE
8
BLACK
6
CONTINUOUS
10
145.3696549999999945
20
-97.3120830000000012
11
145.3848789999999838
21
-97.2355459999999994
0
LINE
8
BLACK
6
CONTINUOUS
10
145.3848789999999838
20
-97.2355459999999994
11
145.4282340000000033
21
-97.170661999999993
0
LINE
8
BLACK
6
CONTINUOUS
10
145.4282340000000033
20
-97.170661999999993
11
145.4931179999999813
21
-97.1273070000000018
0
LINE
8
BLACK
6
CONTINUOUS
10
145.4931179999999813
20
-97.1273070000000018
11
145.5696549999999831
21
-97.1120829999999984
0
LINE
8
BLACK
6
CONTINUOUS
10
145.5696549999999831
20
-97.1120829999999984
11
145.9696549999999888
21
-97.1120829999999984
0
LINE
8
BLACK
6
CONTINUOUS
10
145.9696549999999888
20
-97.1120829999999984
11
146.0461919999999907
21
-97.1273070000000018
0
LINE
8
BLACK
6
CONTINUOUS
10
147.6961919999999964
20
-97.1273070000000018
11
147.7610760000000028
21
-97.170661999999993
0
LINE
8
BLACK
6
CONTINUOUS
10
147.7610760000000028
20
-97.170661999999993
11
147.8044309999999939
21
-97.2355459999999994
0
LINE
8
BLACK
6
CONTINUOUS
10
147.8044309999999939
20
-97.2355459999999994
11
147.8196549999999831
21
-97.3120830000000012
0
LINE
8
BLACK
6
CONTINUOUS
10
147.8196549999999831
20
-97.3120830000000012
11
147.8196549999999831
21
-97.8620829999999984
0
LINE
8
BLACK
6
CONTINUOUS
10
147.8196549999999831
20
-97.8620829999999984
11
147.8044309999999939
21
-97.9386200000000002
0
LINE
8
BLACK
6
CONTINUOUS
10
147.8044309999999939
20
-97.9386200000000002
11
147.7610760000000028
21
-98.0035039999999924
0
LINE
8
BLACK
6
CONTINUOUS
10
147.7610760000000028
20
-98.0035039999999924
11
147.6961919999999964
21
-98.0468589999999978
0
LINE
8
BLACK
6
CONTINUOUS
10
147.6961919999999964
20
-98.0468589999999978
11
147.6196549999999945
21
-98.0620830000000012
0
LINE
8
BLACK
6
CONTINUOUS
10
147.6196549999999945
20
-98.0620830000000012
11
147.2196549999999888
21
-98.0620830000000012
0
LINE
8
BLACK
6
CONTINUOUS
10
147.2196549999999888
20
-98.0620830000000012
11
147.143117999999987
21
-98.0468589999999978
0
LINE
8
BLACK
6
CONTINUOUS
10
147.143117999999987
20
-98.0468589999999978
11
147.0782339999999806
21
-98.0035039999999924
0
LINE
8
BLACK
6
CONTINUOUS
10
147.0782339999999806
20
-98.0035039999999924
11
147.0348789999999894
21
-97.9386200000000002
0
LINE
8
BLACK
6
CONTINUOUS
10
147.0348789999999894
20
-97.9386200000000002
11
147.0196550000000002
21
-97.8620829999999984
0
LINE
8
BLACK
6
CONTINUOUS
10
147.0196550000000002
20
-97.8620829999999984
11
147.0196550000000002
21
-97.3120830000000012
0
LINE
8
BLACK
6
CONTINUOUS
10
147.0196550000000002
20
-97.3120830000000012
11
147.0348789999999894
21
-97.2355459999999994
0
LINE
8
BLACK
6
CONTINUOUS
10
147.0348789999999894
20
-97.2355459999999994
11
147.0782339999999806
21
-97.170661999999993
0
LINE
8
BLACK
6
CONTINUOUS
10
147.0782339999999806
20
-97.170661999999993
11
147.143117999999987
21
-97.1273070000000018
0
LINE
8
BLACK
6
CONTINUOUS
10
147.143117999999987
20
-97.1273070000000018
11
147.2196549999999888
21
-97.1120829999999984
0
LINE
8
BLACK
6
CONTINUOUS
10
147.2196549999999888
20
-97.1120829999999984
11
147.6196549999999945
21
-97.1120829999999984
0
LINE
8
BLACK
6
CONTINUOUS
10
147.6196549999999945
20
-97.1120829999999984
11
147.6961919999999964
21
-97.1273070000000018
0
LINE
8
BLACK
6
CONTINUOUS
10
155.2281089999999892
20
-97.086677999999992
11
155.2929929999999956
21
-97.1300329999999974
0
LINE
8
BLACK
6
CONTINUOUS
10
155.2929929999999956
20
-97.1300329999999974
11
155.3363479999999868
21
-97.1949169999999896
0
LINE
8
BLACK
6
CONTINUOUS
10
155.3363479999999868
20
-97.1949169999999896
11
155.3515720000000044
21
-97.2714539999999914
0
LINE
8
BLACK
6
CONTINUOUS
10
155.3515720000000044
20
-97.2714539999999914
11
155.3515720000000044
21
-97.8214539999999886
0
LINE
8
BLACK
6
CONTINUOUS
10
155.3515720000000044
20
-97.8214539999999886
11
155.3363479999999868
21
-97.8979909999999904
0
LINE
8
BLACK
6
CONTINUOUS
10
155.3363479999999868
20
-97.8979909999999904
11
155.2929929999999956
21
-97.9628749999999968
0
LINE
8
BLACK
6
CONTINUOUS
10
155.2929929999999956
20
-97.9628749999999968
11
155.2281089999999892
21
-98.0062300000000022
0
LINE
8
BLACK
6
CONTINUOUS
10
155.2281089999999892
20
-98.0062300000000022
11
155.1515719999999874
21
-98.0214539999999914
0
LINE
8
BLACK
6
CONTINUOUS
10
155.1515719999999874
20
-98.0214539999999914
11
154.7515719999999817
21
-98.0214539999999914
0
LINE
8
BLACK
6
CONTINUOUS
10
154.7515719999999817
20
-98.0214539999999914
11
154.6750349999999798
21
-98.0062300000000022
0
LINE
8
BLACK
6
CONTINUOUS
10
154.6750349999999798
20
-98.0062300000000022
11
154.6101510000000019
21
-97.9628749999999968
0
LINE
8
BLACK
6
CONTINUOUS
10
154.6101510000000019
20
-97.9628749999999968
11
154.5667959999999823
21
-97.8979909999999904
0
LINE
8
BLACK
6
CONTINUOUS
10
154.5667959999999823
20
-97.8979909999999904
11
154.5515719999999931
21
-97.8214539999999886
0
LINE
8
BLACK
6
CONTINUOUS
10
154.5515719999999931
20
-97.8214539999999886
11
154.5515719999999931
21
-97.2714539999999914
0
LINE
8
BLACK
6
CONTINUOUS
10
154.5515719999999931
20
-97.2714539999999914
11
154.5667959999999823
21
-97.1949169999999896
0
LINE
8
BLACK
6
CONTINUOUS
10
154.5667959999999823
20
-97.1949169999999896
11
154.6101510000000019
21
-97.1300329999999974
0
LINE
8
BLACK
6
CONTINUOUS
10
154.6101510000000019
20
-97.1300329999999974
11
154.6750349999999798
21
-97.086677999999992
0
LINE
8
BLACK
6
CONTINUOUS
10
154.6750349999999798
20
-97.086677999999992
11
154.7515719999999817
21
-97.0714539999999886
0
LINE
8
BLACK
6
CONTINUOUS
10
154.7515719999999817
20
-97.0714539999999886
11
155.1515719999999874
21
-97.0714539999999886
0
LINE
8
BLACK
6
CONTINUOUS
10
155.1515719999999874
20
-97.0714539999999886
11
155.2281089999999892
21
-97.086677999999992
0
LINE
8
BLACK
6
CONTINUOUS
10
156.8781089999999949
20
-97.086677999999992
11
156.9429930000000013
21
-97.1300329999999974
0
LINE
8
BLACK
6
CONTINUOUS
10
156.9429930000000013
20
-97.1300329999999974
11
156.9863479999999925
21
-97.1949169999999896
0
LINE
8
BLACK
6
CONTINUOUS
10
156.9863479999999925
20
-97.1949169999999896
11
157.0015719999999817
21
-97.2714539999999914
0
LINE
8
BLACK
6
CONTINUOUS
10
157.0015719999999817
20
-97.2714539999999914
11
157.0015719999999817
21
-97.8214539999999886
0
LINE
8
BLACK
6
CONTINUOUS
10
157.0015719999999817
20
-97.8214539999999886
11
156.9863479999999925
21
-97.8979909999999904
0
LINE
8
BLACK
6
CONTINUOUS
10
156.9863479999999925
20
-97.8979909999999904
11
156.9429930000000013
21
-97.9628749999999968
0
LINE
8
BLACK
6
CONTINUOUS
10
156.9429930000000013
20
-97.9628749999999968
11
156.8781089999999949
21
-98.0062300000000022
0
LINE
8
BLACK
6
CONTINUOUS
10
156.8781089999999949
20
-98.0062300000000022
11
156.8015719999999931
21
-98.0214539999999914
0
LINE
8
BLACK
6
CONTINUOUS
10
156.8015719999999931
20
-98.0214539999999914
11
156.4015719999999874
21
-98.0214539999999914
0
LINE
8
BLACK
6
CONTINUOUS
10
156.4015719999999874
20
-98.0214539999999914
11
156.3250349999999855
21
-98.0062300000000022
0
LINE
8
BLACK
6
CONTINUOUS
10
156.3250349999999855
20
-98.0062300000000022
11
156.2601509999999791
21
-97.9628749999999968
0
LINE
8
BLACK
6
CONTINUOUS
10
156.2601509999999791
20
-97.9628749999999968
11
156.216795999999988
21
-97.8979909999999904
0
LINE
8
BLACK
6
CONTINUOUS
10
156.216795999999988
20
-97.8979909999999904
11
156.2015719999999988
21
-97.8214539999999886
0
LINE
8
BLACK
6
CONTINUOUS
10
156.2015719999999988
20
-97.8214539999999886
11
156.2015719999999988
21
-97.2714539999999914
0
LINE
8
BLACK
6
CONTINUOUS
10
156.2015719999999988
20
-97.2714539999999914
11
156.216795999999988
21
-97.1949169999999896
0
LINE
8
BLACK
6
CONTINUOUS
10
156.216795999999988
20
-97.1949169999999896
11
156.2601509999999791
21
-97.1300329999999974
0
LINE
8
BLACK
6
CONTINUOUS
10
156.2601509999999791
20
-97.1300329999999974
11
156.3250349999999855
21
-97.086677999999992
0
LINE
8
BLACK
6
CONTINUOUS
10
156.3250349999999855
20
-97.086677999999992
11
156.4015719999999874
21
-97.0714539999999886
0
LINE
8
BLACK
6
CONTINUOUS
10
156.4015719999999874
20
-97.0714539999999886
11
156.8015719999999931
21
-97.0714539999999886
0
LINE
8
BLACK
6
CONTINUOUS
10
156.8015719999999931
20
-97.0714539999999886
11
156.8781089999999949
21
-97.086677999999992
0
LINE
8
BLACK
6
CONTINUOUS
10
162.4232069999999908
20
-96.9346889999999917
11
162.4880909999999972
21
-96.978043999999997
0
LINE
8
BLACK
6
CONTINUOUS
10
162.4880909999999972
20
-96.978043999999997
11
162.5314459999999883
21
-97.0429279999999892
0
LINE
8
BLACK
6
CONTINUOUS
10
162.5314459999999883
20
-97.0429279999999892
11
162.546670000000006
21
-97.1194649999999911
0
LINE
8
BLACK
6
CONTINUOUS
10
162.546670000000006
20
-97.1194649999999911
11
162.546670000000006
21
-97.6694650000000024
0
LINE
8
BLACK
6
CONTINUOUS
10
162.546670000000006
20
-97.6694650000000024
11
162.5314459999999883
21
-97.7460019999999901
0
LINE
8
BLACK
6
CONTINUOUS
10
162.5314459999999883
20
-97.7460019999999901
11
162.4880909999999972
21
-97.8108859999999964
0
LINE
8
BLACK
6
CONTINUOUS
10
162.4880909999999972
20
-97.8108859999999964
11
162.4232069999999908
21
-97.8542410000000018
0
LINE
8
BLACK
6
CONTINUOUS
10
162.4232069999999908
20
-97.8542410000000018
11
162.3466699999999889
21
-97.8694649999999911
0
LINE
8
BLACK
6
CONTINUOUS
10
162.3466699999999889
20
-97.8694649999999911
11
161.9466699999999832
21
-97.8694649999999911
0
LINE
8
BLACK
6
CONTINUOUS
10
161.9466699999999832
20
-97.8694649999999911
11
161.8701329999999814
21
-97.8542410000000018
0
LINE
8
BLACK
6
CONTINUOUS
10
161.8701329999999814
20
-97.8542410000000018
11
161.8052490000000034
21
-97.8108859999999964
0
LINE
8
BLACK
6
CONTINUOUS
10
161.8052490000000034
20
-97.8108859999999964
11
161.7618939999999839
21
-97.7460019999999901
0
LINE
8
BLACK
6
CONTINUOUS
10
161.7618939999999839
20
-97.7460019999999901
11
161.7466699999999946
21
-97.6694650000000024
0
LINE
8
BLACK
6
CONTINUOUS
10
161.7466699999999946
20
-97.6694650000000024
11
161.7466699999999946
21
-97.1194649999999911
0
LINE
8
BLACK
6
CONTINUOUS
10
161.7466699999999946
20
-97.1194649999999911
11
161.7618939999999839
21
-97.0429279999999892
0
LINE
8
BLACK
6
CONTINUOUS
10
161.7618939999999839
20
-97.0429279999999892
11
161.8052490000000034
21
-96.978043999999997
0
LINE
8
BLACK
6
CONTINUOUS
10
161.8052490000000034
20
-96.978043999999997
11
161.8701329999999814
21
-96.9346889999999917
0
LINE
8
BLACK
6
CONTINUOUS
10
161.8701329999999814
20
-96.9346889999999917
11
161.9466699999999832
21
-96.9194650000000024
0
LINE
8
BLACK
6
CONTINUOUS
10
161.9466699999999832
20
-96.9194650000000024
11
162.3466699999999889
21
-96.9194650000000024
0
LINE
8
BLACK
6
CONTINUOUS
10
162.3466699999999889
20
-96.9194650000000024
11
162.4232069999999908
21
-96.9346889999999917
0
LINE
8
BLACK
6
CONTINUOUS
10
164.0732069999999965
20
-96.9346889999999917
11
164.1380910000000029
21
-96.978043999999997
0
LINE
8
BLACK
6
CONTINUOUS
10
164.1380910000000029
20
-96.978043999999997
11
164.181445999999994
21
-97.0429279999999892
0
LINE
8
BLACK
6
CONTINUOUS
10
164.181445999999994
20
-97.0429279999999892
11
164.1966699999999832
21
-97.1194649999999911
0
LINE
8
BLACK
6
CONTINUOUS
10
164.1966699999999832
20
-97.1194649999999911
11
164.1966699999999832
21
-97.6694650000000024
0
LINE
8
BLACK
6
CONTINUOUS
10
164.1966699999999832
20
-97.6694650000000024
11
164.181445999999994
21
-97.7460019999999901
0
LINE
8
BLACK
6
CONTINUOUS
10
164.181445999999994
20
-97.7460019999999901
11
164.1380910000000029
21
-97.8108859999999964
0
LINE
8
BLACK
6
CONTINUOUS
10
164.1380910000000029
20
-97.8108859999999964
11
164.0732069999999965
21
-97.8542410000000018
0
LINE
8
BLACK
6
CONTINUOUS
10
164.0732069999999965
20
-97.8542410000000018
11
163.9966699999999946
21
-97.8694649999999911
0
LINE
8
BLACK
6
CONTINUOUS
10
163.9966699999999946
20
-97.8694649999999911
11
163.5966699999999889
21
-97.8694649999999911
0
LINE
8
BLACK
6
CONTINUOUS
10
163.5966699999999889
20
-97.8694649999999911
11
163.5201329999999871
21
-97.8542410000000018
0
LINE
8
BLACK
6
CONTINUOUS
10
163.5201329999999871
20
-97.8542410000000018
11
163.4552489999999807
21
-97.8108859999999964
0
LINE
8
BLACK
6
CONTINUOUS
10
163.4552489999999807
20
-97.8108859999999964
11
163.4118939999999895
21
-97.7460019999999901
0
LINE
8
BLACK
6
CONTINUOUS
10
163.4118939999999895
20
-97.7460019999999901
11
163.3966700000000003
21
-97.6694650000000024
0
LINE
8
BLACK
6
CONTINUOUS
10
163.3966700000000003
20
-97.6694650000000024
11
163.3966700000000003
21
-97.1194649999999911
0
LINE
8
BLACK
6
CONTINUOUS
10
163.3966700000000003
20
-97.1194649999999911
11
163.4118939999999895
21
-97.0429279999999892
0
LINE
8
BLACK
6
CONTINUOUS
10
163.4118939999999895
20
-97.0429279999999892
11
163.4552489999999807
21
-96.978043999999997
0
LINE
8
BLACK
6
CONTINUOUS
10
163.4552489999999807
20
-96.978043999999997
11
163.5201329999999871
21
-96.9346889999999917
0
LINE
8
BLACK
6
CONTINUOUS
10
163.5201329999999871
20
-96.9346889999999917
11
163.5966699999999889
21
-96.9194650000000024
0
LINE
8
BLACK
6
CONTINUOUS
10
163.5966699999999889
20
-96.9194650000000024
11
163.9966699999999946
21
-96.9194650000000024
0
LINE
8
BLACK
6
CONTINUOUS
10
163.9966699999999946
20
-96.9194650000000024
11
164.0732069999999965
21
-96.9346889999999917
0
LINE
8
BLACK
6
CONTINUOUS
10
159.0240540000000067
20
-97.0575539999999961
11
159.072716999999983
21
-97.0900699999999972
0
LINE
8
BLACK
6
CONTINUOUS
10
159.072716999999983
20
-97.0900699999999972
11
159.1052329999999984
21
-97.138733000000002
0
LINE
8
BLACK
6
CONTINUOUS
10
159.1052329999999984
20
-97.138733000000002
11
159.1166509999999903
21
-97.1961359999999956
0
LINE
8
BLACK
6
CONTINUOUS
10
159.1166509999999903
20
-97.1961359999999956
11
159.1166509999999903
21
-97.4961359999999928
0
LINE
8
BLACK
6
CONTINUOUS
10
159.1166509999999903
20
-97.4961359999999928
11
159.1052329999999984
21
-97.5535390000000007
0
LINE
8
BLACK
6
CONTINUOUS
10
159.1052329999999984
20
-97.5535390000000007
11
159.072716999999983
21
-97.6022019999999912
0
LINE
8
BLACK
6
CONTINUOUS
10
159.072716999999983
20
-97.6022019999999912
11
159.0240540000000067
21
-97.6347179999999923
0
LINE
8
BLACK
6
CONTINUOUS
10
159.0240540000000067
20
-97.6347179999999923
11
158.9666509999999846
21
-97.6461359999999985
0
LINE
8
BLACK
6
CONTINUOUS
10
158.9666509999999846
20
-97.6461359999999985
11
157.7916510000000017
21
-97.6461359999999985
0
LINE
8
BLACK
6
CONTINUOUS
10
157.7916510000000017
20
-97.6461359999999985
11
157.7342479999999796
21
-97.6347179999999923
0
LINE
8
BLACK
6
CONTINUOUS
10
157.7342479999999796
20
-97.6347179999999923
11
157.6855850000000032
21
-97.6022019999999912
0
LINE
8
BLACK
6
CONTINUOUS
10
157.6855850000000032
20
-97.6022019999999912
11
157.6530689999999879
21
-97.5535390000000007
0
LINE
8
BLACK
6
CONTINUOUS
10
157.6530689999999879
20
-97.5535390000000007
11
157.641650999999996
21
-97.4961359999999928
0
LINE
8
BLACK
6
CONTINUOUS
10
157.641650999999996
20
-97.4961359999999928
11
157.641650999999996
21
-97.1961359999999956
0
LINE
8
BLACK
6
CONTINUOUS
10
157.641650999999996
20
-97.1961359999999956
11
157.6530689999999879
21
-97.138733000000002
0
LINE
8
BLACK
6
CONTINUOUS
10
157.6530689999999879
20
-97.138733000000002
11
157.6855850000000032
21
-97.0900699999999972
0
LINE
8
BLACK
6
CONTINUOUS
10
157.6855850000000032
20
-97.0900699999999972
11
157.7342479999999796
21
-97.0575539999999961
0
LINE
8
BLACK
6
CONTINUOUS
10
157.7342479999999796
20
-97.0575539999999961
11
157.7916510000000017
21
-97.04613599999999
0
LINE
8
BLACK
6
CONTINUOUS
10
157.7916510000000017
20
-97.04613599999999
11
158.9666509999999846
21
-97.04613599999999
0
LINE
8
BLACK
6
CONTINUOUS
10
158.9666509999999846
20
-97.04613599999999
11
159.0240540000000067
21
-97.0575539999999961
0
LINE
8
BLACK
6
CONTINUOUS
10
151.0637949999999989
20
-96.1642209999999977
11
151.1449010000000044
21
-96.2184139999999957
0
LINE
8
BLACK
6
CONTINUOUS
10
151.1449010000000044
20
-96.2184139999999957
11
151.1990940000000023
21
-96.2995200000000011
0
LINE
8
BLACK
6
CONTINUOUS
10
151.1990940000000023
20
-96.2995200000000011
11
151.2181239999999889
21
-96.395190999999997
0
LINE
8
BLACK
6
CONTINUOUS
10
151.2181239999999889
20
-96.395190999999997
11
151.2181239999999889
21
-97.3451909999999998
0
LINE
8
BLACK
6
CONTINUOUS
10
151.2181239999999889
20
-97.3451909999999998
11
151.1990940000000023
21
-97.4408619999999956
0
LINE
8
BLACK
6
CONTINUOUS
10
151.1990940000000023
20
-97.4408619999999956
11
151.1449010000000044
21
-97.5219680000000011
0
LINE
8
BLACK
6
CONTINUOUS
10
151.1449010000000044
20
-97.5219680000000011
11
151.0637949999999989
21
-97.576160999999999
0
LINE
8
BLACK
6
CONTINUOUS
10
151.0637949999999989
20
-97.576160999999999
11
150.9681239999999889
21
-97.5951909999999998
0
LINE
8
BLACK
6
CONTINUOUS
10
150.9681239999999889
20
-97.5951909999999998
11
150.4681239999999889
21
-97.5951909999999998
0
LINE
8
BLACK
6
CONTINUOUS
10
150.4681239999999889
20
-97.5951909999999998
11
150.3724530000000073
21
-97.576160999999999
0
LINE
8
BLACK
6
CONTINUOUS
10
150.3724530000000073
20
-97.576160999999999
11
150.2913470000000018
21
-97.5219680000000011
0
LINE
8
BLACK
6
CONTINUOUS
10
150.2913470000000018
20
-97.5219680000000011
11
150.2371540000000039
21
-97.4408619999999956
0
LINE
8
BLACK
6
CONTINUOUS
10
150.2371540000000039
20
-97.4408619999999956
11
150.2181239999999889
21
-97.3451909999999998
0
LINE
8
BLACK
6
CONTINUOUS
10
150.2181239999999889
20
-97.3451909999999998
11
150.2181239999999889
21
-96.395190999999997
0
LINE
8
BLACK
6
CONTINUOUS
10
150.2181239999999889
20
-96.395190999999997
11
150.2371540000000039
21
-96.2995200000000011
0
LINE
8
BLACK
6
CONTINUOUS
10
150.2371540000000039
20
-96.2995200000000011
11
150.2913470000000018
21
-96.2184139999999957
0
LINE
8
BLACK
6
CONTINUOUS
10
150.2913470000000018
20
-96.2184139999999957
11
150.3724530000000073
21
-96.1642209999999977
0
LINE
8
BLACK
6
CONTINUOUS
10
150.3724530000000073
20
-96.1642209999999977
11
150.4681239999999889
21
-96.145190999999997
0
LINE
8
BLACK
6
CONTINUOUS
10
150.4681239999999889
20
-96.145190999999997
11
150.9681239999999889
21
-96.145190999999997
0
LINE
8
BLACK
6
CONTINUOUS
10
150.9681239999999889
20
-96.145190999999997
11
151.0637949999999989
21
-96.1642209999999977
0
LINE
8
BLACK
6
CONTINUOUS
10
152.9637950000000046
20
-96.1642209999999977
11
153.0449009999999817
21
-96.2184139999999957
0
LINE
8
BLACK
6
CONTINUOUS
10
153.0449009999999817
20
-96.2184139999999957
11
153.0990939999999796
21
-96.2995200000000011
0
LINE
8
BLACK
6
CONTINUOUS
10
153.0990939999999796
20
-96.2995200000000011
11
153.1181239999999946
21
-96.395190999999997
0
LINE
8
BLACK
6
CONTINUOUS
10
153.1181239999999946
20
-96.395190999999997
11
153.1181239999999946
21
-97.3451909999999998
0
LINE
8
BLACK
6
CONTINUOUS
10
153.1181239999999946
20
-97.3451909999999998
11
153.0990939999999796
21
-97.4408619999999956
0
LINE
8
BLACK
6
CONTINUOUS
10
153.0990939999999796
20
-97.4408619999999956
11
153.0449009999999817
21
-97.5219680000000011
0
LINE
8
BLACK
6
CONTINUOUS
10
153.0449009999999817
20
-97.5219680000000011
11
152.9637950000000046
21
-97.576160999999999
0
LINE
8
BLACK
6
CONTINUOUS
10
152.9637950000000046
20
-97.576160999999999
11
152.8681239999999946
21
-97.5951909999999998
0
LINE
8
BLACK
6
CONTINUOUS
10
152.8681239999999946
20
-97.5951909999999998
11
152.3681239999999946
21
-97.5951909999999998
0
LINE
8
BLACK
6
CONTINUOUS
10
152.3681239999999946
20
-97.5951909999999998
11
152.2724529999999845
21
-97.576160999999999
0
LINE
8
BLACK
6
CONTINUOUS
10
152.2724529999999845
20
-97.576160999999999
11
152.1913469999999791
21
-97.5219680000000011
0
LINE
8
BLACK
6
CONTINUOUS
10
152.1913469999999791
20
-97.5219680000000011
11
152.1371539999999811
21
-97.4408619999999956
0
LINE
8
BLACK
6
CONTINUOUS
10
152.1371539999999811
20
-97.4408619999999956
11
152.1181239999999946
21
-97.3451909999999998
0
LINE
8
BLACK
6
CONTINUOUS
10
152.1181239999999946
20
-97.3451909999999998
11
152.1181239999999946
21
-96.395190999999997
0
LINE
8
BLACK
6
CONTINUOUS
10
152.1181239999999946
20
-96.395190999999997
11
152.1371539999999811
21
-96.2995200000000011
0
LINE
8
BLACK
6
CONTINUOUS
10
152.1371539999999811
20
-96.2995200000000011
11
152.1913469999999791
21
-96.2184139999999957
0
LINE
8
BLACK
6
CONTINUOUS
10
152.1913469999999791
20
-96.2184139999999957
11
152.2724529999999845
21
-96.1642209999999977
0
LINE
8
BLACK
6
CONTINUOUS
10
152.2724529999999845
20
-96.1642209999999977
11
152.3681239999999946
21
-96.145190999999997
0
LINE
8
BLACK
6
CONTINUOUS
10
152.3681239999999946
20
-96.145190999999997
11
152.8681239999999946
21
-96.145190999999997
0
LINE
8
BLACK
6
CONTINUOUS
10
152.8681239999999946
20
-96.145190999999997
11
152.9637950000000046
21
-96.1642209999999977
0
LINE
8
BLACK
6
CONTINUOUS
10
160.8741379999999879
20
-95.4929559999999924
11
160.9228009999999927
21
-95.5254719999999935
0
LINE
8
BLACK
6
CONTINUOUS
10
160.9228009999999927
20
-95.5254719999999935
11
160.9553169999999795
21
-95.5741349999999983
0
LINE
8
BLACK
6
CONTINUOUS
10
160.9553169999999795
20
-95.5741349999999983
11
160.9667349999999999
21
-95.6315379999999919
0
LINE
8
BLACK
6
CONTINUOUS
10
160.9667349999999999
20
-95.6315379999999919
11
160.9667349999999999
21
-95.9315379999999891
0
LINE
8
BLACK
6
CONTINUOUS
10
160.9667349999999999
20
-95.9315379999999891
11
160.9553169999999795
21
-95.988940999999997
0
LINE
8
BLACK
6
CONTINUOUS
10
160.9553169999999795
20
-95.988940999999997
11
160.9228009999999927
21
-96.0376040000000017
0
LINE
8
BLACK
6
CONTINUOUS
10
160.9228009999999927
20
-96.0376040000000017
11
160.8741379999999879
21
-96.0701199999999886
0
LINE
8
BLACK
6
CONTINUOUS
10
160.8741379999999879
20
-96.0701199999999886
11
160.8167349999999942
21
-96.0815379999999948
0
LINE
8
BLACK
6
CONTINUOUS
10
160.8167349999999942
20
-96.0815379999999948
11
159.6417349999999828
21
-96.0815379999999948
0
LINE
8
BLACK
6
CONTINUOUS
10
159.6417349999999828
20
-96.0815379999999948
11
159.5843319999999892
21
-96.0701199999999886
0
LINE
8
BLACK
6
CONTINUOUS
10
159.5843319999999892
20
-96.0701199999999886
11
159.5356689999999844
21
-96.0376040000000017
0
LINE
8
BLACK
6
CONTINUOUS
10
159.5356689999999844
20
-96.0376040000000017
11
159.5031529999999975
21
-95.988940999999997
0
LINE
8
BLACK
6
CONTINUOUS
10
159.5031529999999975
20
-95.988940999999997
11
159.4917350000000056
21
-95.9315379999999891
0
LINE
8
BLACK
6
CONTINUOUS
10
159.4917350000000056
20
-95.9315379999999891
11
159.4917350000000056
21
-95.6315379999999919
0
LINE
8
BLACK
6
CONTINUOUS
10
159.4917350000000056
20
-95.6315379999999919
11
159.5031529999999975
21
-95.5741349999999983
0
LINE
8
BLACK
6
CONTINUOUS
10
159.5031529999999975
20
-95.5741349999999983
11
159.5356689999999844
21
-95.5254719999999935
0
LINE
8
BLACK
6
CONTINUOUS
10
159.5356689999999844
20
-95.5254719999999935
11
159.5843319999999892
21
-95.4929559999999924
0
LINE
8
BLACK
6
CONTINUOUS
10
159.5843319999999892
20
-95.4929559999999924
11
159.6417349999999828
21
-95.4815380000000005
0
LINE
8
BLACK
6
CONTINUOUS
10
159.6417349999999828
20
-95.4815380000000005
11
160.8167349999999942
21
-95.4815380000000005
0
LINE
8
BLACK
6
CONTINUOUS
10
160.8167349999999942
20
-95.4815380000000005
11
160.8741379999999879
21
-95.4929559999999924
0
LINE
8
BLACK
6
CONTINUOUS
10
148.6240599999999858
20
-94.8085399999999936
11
148.6889439999999922
21
-94.851894999999999
0
LINE
8
BLACK
6
CONTINUOUS
10
148.6889439999999922
20
-94.851894999999999
11
148.7322989999999834
21
-94.9167789999999911
0
LINE
8
BLACK
6
CONTINUOUS
10
148.7322989999999834
20
-94.9167789999999911
11
148.747523000000001
21
-94.993315999999993
0
LINE
8
BLACK
6
CONTINUOUS
10
148.747523000000001
20
-94.993315999999993
11
148.747523000000001
21
-95.3933159999999987
0
LINE
8
BLACK
6
CONTINUOUS
10
148.747523000000001
20
-95.3933159999999987
11
148.7322989999999834
21
-95.4698530000000005
0
LINE
8
BLACK
6
CONTINUOUS
10
148.7322989999999834
20
-95.4698530000000005
11
148.6889439999999922
21
-95.5347369999999927
0
LINE
8
BLACK
6
CONTINUOUS
10
148.6889439999999922
20
-95.5347369999999927
11
148.6240599999999858
21
-95.5780919999999981
0
LINE
8
BLACK
6
CONTINUOUS
10
148.6240599999999858
20
-95.5780919999999981
11
148.547522999999984
21
-95.5933160000000015
0
LINE
8
BLACK
6
CONTINUOUS
10
148.547522999999984
20
-95.5933160000000015
11
147.997523000000001
21
-95.5933160000000015
0
LINE
8
BLACK
6
CONTINUOUS
10
147.997523000000001
20
-95.5933160000000015
11
147.9209859999999992
21
-95.5780919999999981
0
LINE
8
BLACK
6
CONTINUOUS
10
147.9209859999999992
20
-95.5780919999999981
11
147.8561019999999928
21
-95.5347369999999927
0
LINE
8
BLACK
6
CONTINUOUS
10
147.8561019999999928
20
-95.5347369999999927
11
147.8127470000000017
21
-95.4698530000000005
0
LINE
8
BLACK
6
CONTINUOUS
10
147.8127470000000017
20
-95.4698530000000005
11
147.797522999999984
21
-95.3933159999999987
0
LINE
8
BLACK
6
CONTINUOUS
10
147.797522999999984
20
-95.3933159999999987
11
147.797522999999984
21
-94.993315999999993
0
LINE
8
BLACK
6
CONTINUOUS
10
147.797522999999984
20
-94.993315999999993
11
147.8127470000000017
21
-94.9167789999999911
0
LINE
8
BLACK
6
CONTINUOUS
10
147.8127470000000017
20
-94.9167789999999911
11
147.8561019999999928
21
-94.851894999999999
0
LINE
8
BLACK
6
CONTINUOUS
10
147.8561019999999928
20
-94.851894999999999
11
147.9209859999999992
21
-94.8085399999999936
0
LINE
8
BLACK
6
CONTINUOUS
10
147.9209859999999992
20
-94.8085399999999936
11
147.997523000000001
21
-94.7933159999999901
0
LINE
8
BLACK
6
CONTINUOUS
10
147.997523000000001
20
-94.7933159999999901
11
148.547522999999984
21
-94.7933159999999901
0
LINE
8
BLACK
6
CONTINUOUS
10
148.547522999999984
20
-94.7933159999999901
11
148.6240599999999858
21
-94.8085399999999936
0
LINE
8
BLACK
6
CONTINUOUS
10
151.2731689999999958
20
-95.2527759999999972
11
150.0731690000000071
21
-95.2527759999999972
0
LINE
8
BLACK
6
CONTINUOUS
10
150.0731690000000071
20
-95.2527759999999972
11
150.0731690000000071
21
-94.6527759999999887
0
LINE
8
BLACK
6
CONTINUOUS
10
150.0731690000000071
20
-94.6527759999999887
11
151.2731689999999958
21
-94.6527759999999887
0
LINE
8
BLACK
6
CONTINUOUS
10
151.2731689999999958
20
-94.6527759999999887
11
151.2731689999999958
21
-95.2527759999999972
0
LINE
8
BLACK
6
CONTINUOUS
10
157.093168999999989
20
-95.2527759999999972
11
155.8931690000000003
21
-95.2527759999999972
0
LINE
8
BLACK
6
CONTINUOUS
10
155.8931690000000003
20
-95.2527759999999972
11
155.8931690000000003
21
-94.6527759999999887
0
LINE
8
BLACK
6
CONTINUOUS
10
155.8931690000000003
20
-94.6527759999999887
11
157.093168999999989
21
-94.6527759999999887
0
LINE
8
BLACK
6
CONTINUOUS
10
157.093168999999989
20
-94.6527759999999887
11
157.093168999999989
21
-95.2527759999999972
0
LINE
8
BLACK
6
CONTINUOUS
10
158.9991379999999879
20
-94.5429559999999896
11
159.0478009999999927
21
-94.5754719999999907
0
LINE
8
BLACK
6
CONTINUOUS
10
159.0478009999999927
20
-94.5754719999999907
11
159.0803169999999795
21
-94.6241349999999954
0
LINE
8
BLACK
6
CONTINUOUS
10
159.0803169999999795
20
-94.6241349999999954
11
159.0917349999999999
21
-94.6815379999999891
0
LINE
8
BLACK
6
CONTINUOUS
10
159.0917349999999999
20
-94.6815379999999891
11
159.0917349999999999
21
-94.9815380000000005
0
LINE
8
BLACK
6
CONTINUOUS
10
159.0917349999999999
20
-94.9815380000000005
11
159.0803169999999795
21
-95.0389409999999941
0
LINE
8
BLACK
6
CONTINUOUS
10
159.0803169999999795
20
-95.0389409999999941
11
159.0478009999999927
21
-95.0876039999999989
0
LINE
8
BLACK
6
CONTINUOUS
10
159.0478009999999927
20
-95.0876039999999989
11
158.9991379999999879
21
-95.12012
0
LINE
8
BLACK
6
CONTINUOUS
10
158.9991379999999879
20
-95.12012
11
158.9417349999999942
21
-95.1315379999999919
0
LINE
8
BLACK
6
CONTINUOUS
10
158.9417349999999942
20
-95.1315379999999919
11
157.7667349999999828
21
-95.1315379999999919
0
LINE
8
BLACK
6
CONTINUOUS
10
157.7667349999999828
20
-95.1315379999999919
11
157.7093319999999892
21
-95.12012
0
LINE
8
BLACK
6
CONTINUOUS
10
157.7093319999999892
20
-95.12012
11
157.6606689999999844
21
-95.0876039999999989
0
LINE
8
BLACK
6
CONTINUOUS
10
157.6606689999999844
20
-95.0876039999999989
11
157.6281529999999975
21
-95.0389409999999941
0
LINE
8
BLACK
6
CONTINUOUS
10
157.6281529999999975
20
-95.0389409999999941
11
157.6167350000000056
21
-94.9815380000000005
0
LINE
8
BLACK
6
CONTINUOUS
10
157.6167350000000056
20
-94.9815380000000005
11
157.6167350000000056
21
-94.6815379999999891
0
LINE
8
BLACK
6
CONTINUOUS
10
157.6167350000000056
20
-94.6815379999999891
11
157.6281529999999975
21
-94.6241349999999954
0
LINE
8
BLACK
6
CONTINUOUS
10
157.6281529999999975
20
-94.6241349999999954
11
157.6606689999999844
21
-94.5754719999999907
0
LINE
8
BLACK
6
CONTINUOUS
10
157.6606689999999844
20
-94.5754719999999907
11
157.7093319999999892
21
-94.5429559999999896
0
LINE
8
BLACK
6
CONTINUOUS
10
157.7093319999999892
20
-94.5429559999999896
11
157.7667349999999828
21
-94.5315379999999976
0
LINE
8
BLACK
6
CONTINUOUS
10
157.7667349999999828
20
-94.5315379999999976
11
158.9417349999999942
21
-94.5315379999999976
0
LINE
8
BLACK
6
CONTINUOUS
10
158.9417349999999942
20
-94.5315379999999976
11
158.9991379999999879
21
-94.5429559999999896
0
LINE
8
BLACK
6
CONTINUOUS
10
154.7831689999999867
20
-94.692775999999995
11
152.383168999999981
21
-94.692775999999995
0
LINE
8
BLACK
6
CONTINUOUS
10
152.383168999999981
20
-94.692775999999995
11
152.383168999999981
21
-91.3927759999999978
0
LINE
8
BLACK
6
CONTINUOUS
10
152.383168999999981
20
-91.3927759999999978
11
154.7831689999999867
21
-91.3927759999999978
0
LINE
8
BLACK
6
CONTINUOUS
10
154.7831689999999867
20
-91.3927759999999978
11
154.7831689999999867
21
-94.692775999999995
0
LINE
8
BLACK
6
CONTINUOUS
10
160.8741379999999879
20
-93.5929560000000009
11
160.9228009999999927
21
-93.625472000000002
0
LINE
8
BLACK
6
CONTINUOUS
10
160.9228009999999927
20
-93.625472000000002
11
160.9553169999999795
21
-93.6741349999999926
0
LINE
8
BLACK
6
CONTINUOUS
10
160.9553169999999795
20
-93.6741349999999926
11
160.9667349999999999
21
-93.7315380000000005
0
LINE
8
BLACK
6
CONTINUOUS
10
160.9667349999999999
20
-93.7315380000000005
11
160.9667349999999999
21
-94.0315379999999976
0
LINE
8
BLACK
6
CONTINUOUS
10
160.9667349999999999
20
-94.0315379999999976
11
160.9553169999999795
21
-94.0889409999999913
0
LINE
8
BLACK
6
CONTINUOUS
10
160.9553169999999795
20
-94.0889409999999913
11
160.9228009999999927
21
-94.1376039999999961
0
LINE
8
BLACK
6
CONTINUOUS
10
160.9228009999999927
20
-94.1376039999999961
11
160.8741379999999879
21
-94.1701199999999972
0
LINE
8
BLACK
6
CONTINUOUS
10
160.8741379999999879
20
-94.1701199999999972
11
160.8167349999999942
21
-94.1815379999999891
0
LINE
8
BLACK
6
CONTINUOUS
10
160.8167349999999942
20
-94.1815379999999891
11
159.6417349999999828
21
-94.1815379999999891
0
LINE
8
BLACK
6
CONTINUOUS
10
159.6417349999999828
20
-94.1815379999999891
11
159.5843319999999892
21
-94.1701199999999972
0
LINE
8
BLACK
6
CONTINUOUS
10
159.5843319999999892
20
-94.1701199999999972
11
159.5356689999999844
21
-94.1376039999999961
0
LINE
8
BLACK
6
CONTINUOUS
10
159.5356689999999844
20
-94.1376039999999961
11
159.5031529999999975
21
-94.0889409999999913
0
LINE
8
BLACK
6
CONTINUOUS
10
159.5031529999999975
20
-94.0889409999999913
11
159.4917350000000056
21
-94.0315379999999976
0
LINE
8
BLACK
6
CONTINUOUS
10
159.4917350000000056
20
-94.0315379999999976
11
159.4917350000000056
21
-93.7315380000000005
0
LINE
8
BLACK
6
CONTINUOUS
10
159.4917350000000056
20
-93.7315380000000005
11
159.5031529999999975
21
-93.6741349999999926
0
LINE
8
BLACK
6
CONTINUOUS
10
159.5031529999999975
20
-93.6741349999999926
11
159.5356689999999844
21
-93.625472000000002
0
LINE
8
BLACK
6
CONTINUOUS
10
159.5356689999999844
20
-93.625472000000002
11
159.5843319999999892
21
-93.5929560000000009
0
LINE
8
BLACK
6
CONTINUOUS
10
159.5843319999999892
20
-93.5929560000000009
11
159.6417349999999828
21
-93.5815379999999948
0
LINE
8
BLACK
6
CONTINUOUS
10
159.6417349999999828
20
-93.5815379999999948
11
160.8167349999999942
21
-93.5815379999999948
0
LINE
8
BLACK
6
CONTINUOUS
10
160.8167349999999942
20
-93.5815379999999948
11
160.8741379999999879
21
-93.5929560000000009
0
LINE
8
BLACK
6
CONTINUOUS
10
151.2731689999999958
20
-93.9827760000000012
11
150.0731690000000071
21
-93.9827760000000012
0
LINE
8
BLACK
6
CONTINUOUS
10
150.0731690000000071
20
-93.9827760000000012
11
150.0731690000000071
21
-93.3827759999999927
0
LINE
8
BLACK
6
CONTINUOUS
10
150.0731690000000071
20
-93.3827759999999927
11
151.2731689999999958
21
-93.3827759999999927
0
LINE
8
BLACK
6
CONTINUOUS
10
151.2731689999999958
20
-93.3827759999999927
11
151.2731689999999958
21
-93.9827760000000012
0
LINE
8
BLACK
6
CONTINUOUS
10
157.093168999999989
20
-93.9827760000000012
11
155.8931690000000003
21
-93.9827760000000012
0
LINE
8
BLACK
6
CONTINUOUS
10
155.8931690000000003
20
-93.9827760000000012
11
155.8931690000000003
21
-93.3827759999999927
0
LINE
8
BLACK
6
CONTINUOUS
10
155.8931690000000003
20
-93.3827759999999927
11
157.093168999999989
21
-93.3827759999999927
0
LINE
8
BLACK
6
CONTINUOUS
10
157.093168999999989
20
-93.3827759999999927
11
157.093168999999989
21
-93.9827760000000012
0
LINE
8
BLACK
6
CONTINUOUS
10
148.6240599999999858
20
-93.1585400000000021
11
148.6889439999999922
21
-93.2018949999999933
0
LINE
8
BLACK
6
CONTINUOUS
10
148.6889439999999922
20
-93.2018949999999933
11
148.7322989999999834
21
-93.2667789999999997
0
LINE
8
BLACK
6
CONTINUOUS
10
148.7322989999999834
20
-93.2667789999999997
11
148.747523000000001
21
-93.3433160000000015
0
LINE
8
BLACK
6
CONTINUOUS
10
148.747523000000001
20
-93.3433160000000015
11
148.747523000000001
21
-93.743315999999993
0
LINE
8
BLACK
6
CONTINUOUS
10
148.747523000000001
20
-93.743315999999993
11
148.7322989999999834
21
-93.8198529999999948
0
LINE
8
BLACK
6
CONTINUOUS
10
148.7322989999999834
20
-93.8198529999999948
11
148.6889439999999922
21
-93.8847370000000012
0
LINE
8
BLACK
6
CONTINUOUS
10
148.6889439999999922
20
-93.8847370000000012
11
148.6240599999999858
21
-93.9280919999999924
0
LINE
8
BLACK
6
CONTINUOUS
10
148.6240599999999858
20
-93.9280919999999924
11
148.547522999999984
21
-93.9433159999999958
0
LINE
8
BLACK
6
CONTINUOUS
10
148.547522999999984
20
-93.9433159999999958
11
147.997523000000001
21
-93.9433159999999958
0
LINE
8
BLACK
6
CONTINUOUS
10
147.997523000000001
20
-93.9433159999999958
11
147.9209859999999992
21
-93.9280919999999924
0
LINE
8
BLACK
6
CONTINUOUS
10
147.9209859999999992
20
-93.9280919999999924
11
147.8561019999999928
21
-93.8847370000000012
0
LINE
8
BLACK
6
CONTINUOUS
10
147.8561019999999928
20
-93.8847370000000012
11
147.8127470000000017
21
-93.8198529999999948
0
LINE
8
BLACK
6
CONTINUOUS
10
147.8127470000000017
20
-93.8198529999999948
11
147.797522999999984
21
-93.743315999999993
0
LINE
8
BLACK
6
CONTINUOUS
10
147.797522999999984
20
-93.743315999999993
11
147.797522999999984
21
-93.3433160000000015
0
LINE
8
BLACK
6
CONTINUOUS
10
147.797522999999984
20
-93.3433160000000015
11
147.8127470000000017
21
-93.2667789999999997
0
LINE
8
BLACK
6
CONTINUOUS
10
147.8127470000000017
20
-93.2667789999999997
11
147.8561019999999928
21
-93.2018949999999933
0
LINE
8
BLACK
6
CONTINUOUS
10
147.8561019999999928
20
-93.2018949999999933
11
147.9209859999999992
21
-93.1585400000000021
0
LINE
8
BLACK
6
CONTINUOUS
10
147.9209859999999992
20
-93.1585400000000021
11
147.997523000000001
21
-93.1433159999999987
0
LINE
8
BLACK
6
CONTINUOUS
10
147.997523000000001
20
-93.1433159999999987
11
148.547522999999984
21
-93.1433159999999987
0
LINE
8
BLACK
6
CONTINUOUS
10
148.547522999999984
20
-93.1433159999999987
11
148.6240599999999858
21
-93.1585400000000021
0
LINE
8
BLACK
6
CONTINUOUS
10
164.3127759999999853
20
-92.790149999999997
11
157.8627759999999967
21
-92.790149999999997
0
LINE
8
BLACK
6
CONTINUOUS
10
157.8627759999999967
20
-92.790149999999997
11
157.8627759999999967
21
-87.4901499999999999
0
LINE
8
BLACK
6
CONTINUOUS
10
157.8627759999999967
20
-87.4901499999999999
11
164.3127759999999853
21
-87.4901499999999999
0
LINE
8
BLACK
6
CONTINUOUS
10
164.3127759999999853
20
-87.4901499999999999
11
164.3127759999999853
21
-92.790149999999997
0
LINE
8
BLACK
6
CONTINUOUS
10
220.0527759999999944
20
-92.790149999999997
11
213.6027759999999773
21
-92.790149999999997
0
LINE
8
BLACK
6
CONTINUOUS
10
213.6027759999999773
20
-92.790149999999997
11
213.6027759999999773
21
-87.4901499999999999
0
LINE
8
BLACK
6
CONTINUOUS
10
213.6027759999999773
20
-87.4901499999999999
11
220.0527759999999944
21
-87.4901499999999999
0
LINE
8
BLACK
6
CONTINUOUS
10
220.0527759999999944
20
-87.4901499999999999
11
220.0527759999999944
21
-92.790149999999997
0
LINE
8
BLACK
6
CONTINUOUS
10
151.2731689999999958
20
-92.7027760000000001
11
150.0731690000000071
21
-92.7027760000000001
0
LINE
8
BLACK
6
CONTINUOUS
10
150.0731690000000071
20
-92.7027760000000001
11
150.0731690000000071
21
-92.1027759999999915
0
LINE
8
BLACK
6
CONTINUOUS
10
150.0731690000000071
20
-92.1027759999999915
11
151.2731689999999958
21
-92.1027759999999915
0
LINE
8
BLACK
6
CONTINUOUS
10
151.2731689999999958
20
-92.1027759999999915
11
151.2731689999999958
21
-92.7027760000000001
0
LINE
8
BLACK
6
CONTINUOUS
10
157.093168999999989
20
-92.7027760000000001
11
155.8931690000000003
21
-92.7027760000000001
0
LINE
8
BLACK
6
CONTINUOUS
10
155.8931690000000003
20
-92.7027760000000001
11
155.8931690000000003
21
-92.1027759999999915
0
LINE
8
BLACK
6
CONTINUOUS
10
155.8931690000000003
20
-92.1027759999999915
11
157.093168999999989
21
-92.1027759999999915
0
LINE
8
BLACK
6
CONTINUOUS
10
157.093168999999989
20
-92.1027759999999915
11
157.093168999999989
21
-92.7027760000000001
0
LINE
8
BLACK
6
CONTINUOUS
10
146.8371319999999969
20
-91.4463349999999906
11
146.9162100000000066
21
-91.4991739999999965
0
LINE
8
BLACK
6
CONTINUOUS
10
146.9162100000000066
20
-91.4991739999999965
11
146.9690489999999841
21
-91.578251999999992
0
LINE
8
BLACK
6
CONTINUOUS
10
146.9690489999999841
20
-91.578251999999992
11
146.9876030000000071
21
-91.6715310000000017
0
LINE
8
BLACK
6
CONTINUOUS
10
146.9876030000000071
20
-91.6715310000000017
11
146.9876030000000071
21
-92.1590309999999988
0
LINE
8
BLACK
6
CONTINUOUS
10
146.9876030000000071
20
-92.1590309999999988
11
146.9690489999999841
21
-92.2523099999999943
0
LINE
8
BLACK
6
CONTINUOUS
10
146.9690489999999841
20
-92.2523099999999943
11
146.9162100000000066
21
-92.3313879999999898
0
LINE
8
BLACK
6
CONTINUOUS
10
146.9162100000000066
20
-92.3313879999999898
11
146.8371319999999969
21
-92.3842269999999957
0
LINE
8
BLACK
6
CONTINUOUS
10
146.8371319999999969
20
-92.3842269999999957
11
146.7438530000000014
21
-92.4027809999999903
0
LINE
8
BLACK
6
CONTINUOUS
10
146.7438530000000014
20
-92.4027809999999903
11
145.8313530000000071
21
-92.4027809999999903
0
LINE
8
BLACK
6
CONTINUOUS
10
145.8313530000000071
20
-92.4027809999999903
11
145.7380739999999832
21
-92.3842269999999957
0
LINE
8
BLACK
6
CONTINUOUS
10
145.7380739999999832
20
-92.3842269999999957
11
145.6589960000000019
21
-92.3313879999999898
0
LINE
8
BLACK
6
CONTINUOUS
10
145.6589960000000019
20
-92.3313879999999898
11
145.6061569999999961
21
-92.2523099999999943
0
LINE
8
BLACK
6
CONTINUOUS
10
145.6061569999999961
20
-92.2523099999999943
11
145.5876030000000014
21
-92.1590309999999988
0
LINE
8
BLACK
6
CONTINUOUS
10
145.5876030000000014
20
-92.1590309999999988
11
145.5876030000000014
21
-91.6715310000000017
0
LINE
8
BLACK
6
CONTINUOUS
10
145.5876030000000014
20
-91.6715310000000017
11
145.6061569999999961
21
-91.578251999999992
0
LINE
8
BLACK
6
CONTINUOUS
10
145.6061569999999961
20
-91.578251999999992
11
145.6589960000000019
21
-91.4991739999999965
0
LINE
8
BLACK
6
CONTINUOUS
10
145.6589960000000019
20
-91.4991739999999965
11
145.7380739999999832
21
-91.4463349999999906
0
LINE
8
BLACK
6
CONTINUOUS
10
145.7380739999999832
20
-91.4463349999999906
11
145.8313530000000071
21
-91.427780999999996
0
LINE
8
BLACK
6
CONTINUOUS
10
145.8313530000000071
20
-91.427780999999996
11
146.7438530000000014
21
-91.427780999999996
0
LINE
8
BLACK
6
CONTINUOUS
10
146.7438530000000014
20
-91.427780999999996
11
146.8371319999999969
21
-91.4463349999999906
0
LINE
8
BLACK
6
CONTINUOUS
10
148.6017159999999819
20
-91.4552989999999966
11
148.6747110000000021
21
-91.5040729999999911
0
LINE
8
BLACK
6
CONTINUOUS
10
148.6747110000000021
20
-91.5040729999999911
11
148.7234849999999824
21
-91.577067999999997
0
LINE
8
BLACK
6
CONTINUOUS
10
148.7234849999999824
20
-91.577067999999997
11
148.7406119999999987
21
-91.6631719999999888
0
LINE
8
BLACK
6
CONTINUOUS
10
148.7406119999999987
20
-91.6631719999999888
11
148.7406119999999987
21
-92.1131719999999916
0
LINE
8
BLACK
6
CONTINUOUS
10
148.7406119999999987
20
-92.1131719999999916
11
148.7234849999999824
21
-92.1992759999999976
0
LINE
8
BLACK
6
CONTINUOUS
10
148.7234849999999824
20
-92.1992759999999976
11
148.6747110000000021
21
-92.2722709999999893
0
LINE
8
BLACK
6
CONTINUOUS
10
148.6747110000000021
20
-92.2722709999999893
11
148.6017159999999819
21
-92.321044999999998
0
LINE
8
BLACK
6
CONTINUOUS
10
148.6017159999999819
20
-92.321044999999998
11
148.5156120000000044
21
-92.3381720000000001
0
LINE
8
BLACK
6
CONTINUOUS
10
148.5156120000000044
20
-92.3381720000000001
11
148.0156120000000044
21
-92.3381720000000001
0
LINE
8
BLACK
6
CONTINUOUS
10
148.0156120000000044
20
-92.3381720000000001
11
147.9295079999999984
21
-92.321044999999998
0
LINE
8
BLACK
6
CONTINUOUS
10
147.9295079999999984
20
-92.321044999999998
11
147.8565130000000067
21
-92.2722709999999893
0
LINE
8
BLACK
6
CONTINUOUS
10
147.8565130000000067
20
-92.2722709999999893
11
147.807738999999998
21
-92.1992759999999976
0
LINE
8
BLACK
6
CONTINUOUS
10
147.807738999999998
20
-92.1992759999999976
11
147.7906119999999817
21
-92.1131719999999916
0
LINE
8
BLACK
6
CONTINUOUS
10
147.7906119999999817
20
-92.1131719999999916
11
147.7906119999999817
21
-91.6631719999999888
0
LINE
8
BLACK
6
CONTINUOUS
10
147.7906119999999817
20
-91.6631719999999888
11
147.807738999999998
21
-91.577067999999997
0
LINE
8
BLACK
6
CONTINUOUS
10
147.807738999999998
20
-91.577067999999997
11
147.8565130000000067
21
-91.5040729999999911
0
LINE
8
BLACK
6
CONTINUOUS
10
147.8565130000000067
20
-91.5040729999999911
11
147.9295079999999984
21
-91.4552989999999966
0
LINE
8
BLACK
6
CONTINUOUS
10
147.9295079999999984
20
-91.4552989999999966
11
148.0156120000000044
21
-91.4381719999999945
0
LINE
8
BLACK
6
CONTINUOUS
10
148.0156120000000044
20
-91.4381719999999945
11
148.5156120000000044
21
-91.4381719999999945
0
LINE
8
BLACK
6
CONTINUOUS
10
148.5156120000000044
20
-91.4381719999999945
11
148.6017159999999819
21
-91.4552989999999966
0
LINE
8
BLACK
6
CONTINUOUS
10
141.6826700000000017
20
-91.245757999999995
11
141.7475539999999796
21
-91.2891130000000004
0
LINE
8
BLACK
6
CONTINUOUS
10
141.7475539999999796
20
-91.2891130000000004
11
141.7909089999999992
21
-91.3539969999999926
0
LINE
8
BLACK
6
CONTINUOUS
10
141.7909089999999992
20
-91.3539969999999926
11
141.8061329999999884
21
-91.4305339999999944
0
LINE
8
BLACK
6
CONTINUOUS
10
141.8061329999999884
20
-91.4305339999999944
11
141.8061329999999884
21
-91.8305340000000001
0
LINE
8
BLACK
6
CONTINUOUS
10
141.8061329999999884
20
-91.8305340000000001
11
141.7909089999999992
21
-91.907071000000002
0
LINE
8
BLACK
6
CONTINUOUS
10
141.7909089999999992
20
-91.907071000000002
11
141.7475539999999796
21
-91.9719549999999941
0
LINE
8
BLACK
6
CONTINUOUS
10
141.7475539999999796
20
-91.9719549999999941
11
141.6826700000000017
21
-92.0153099999999995
0
LINE
8
BLACK
6
CONTINUOUS
10
141.6826700000000017
20
-92.0153099999999995
11
141.6061329999999998
21
-92.0305339999999887
0
LINE
8
BLACK
6
CONTINUOUS
10
141.6061329999999998
20
-92.0305339999999887
11
141.0561329999999884
21
-92.0305339999999887
0
LINE
8
BLACK
6
CONTINUOUS
10
141.0561329999999884
20
-92.0305339999999887
11
140.9795959999999866
21
-92.0153099999999995
0
LINE
8
BLACK
6
CONTINUOUS
10
140.9795959999999866
20
-92.0153099999999995
11
140.9147119999999802
21
-91.9719549999999941
0
LINE
8
BLACK
6
CONTINUOUS
10
140.9147119999999802
20
-91.9719549999999941
11
140.8713569999999891
21
-91.907071000000002
0
LINE
8
BLACK
6
CONTINUOUS
10
140.8713569999999891
20
-91.907071000000002
11
140.8561329999999998
21
-91.8305340000000001
0
LINE
8
BLACK
6
CONTINUOUS
10
140.8561329999999998
20
-91.8305340000000001
11
140.8561329999999998
21
-91.4305339999999944
0
LINE
8
BLACK
6
CONTINUOUS
10
140.8561329999999998
20
-91.4305339999999944
11
140.8713569999999891
21
-91.3539969999999926
0
LINE
8
BLACK
6
CONTINUOUS
10
140.8713569999999891
20
-91.3539969999999926
11
140.9147119999999802
21
-91.2891130000000004
0
LINE
8
BLACK
6
CONTINUOUS
10
140.9147119999999802
20
-91.2891130000000004
11
140.9795959999999866
21
-91.245757999999995
0
LINE
8
BLACK
6
CONTINUOUS
10
140.9795959999999866
20
-91.245757999999995
11
141.0561329999999884
21
-91.2305339999999916
0
LINE
8
BLACK
6
CONTINUOUS
10
141.0561329999999884
20
-91.2305339999999916
11
141.6061329999999998
21
-91.2305339999999916
0
LINE
8
BLACK
6
CONTINUOUS
10
141.6061329999999998
20
-91.2305339999999916
11
141.6826700000000017
21
-91.245757999999995
0
LINE
8
BLACK
6
CONTINUOUS
10
143.1826700000000017
20
-91.245757999999995
11
143.2475539999999796
21
-91.2891130000000004
0
LINE
8
BLACK
6
CONTINUOUS
10
143.2475539999999796
20
-91.2891130000000004
11
143.2909089999999992
21
-91.3539969999999926
0
LINE
8
BLACK
6
CONTINUOUS
10
143.2909089999999992
20
-91.3539969999999926
11
143.3061329999999884
21
-91.4305339999999944
0
LINE
8
BLACK
6
CONTINUOUS
10
143.3061329999999884
20
-91.4305339999999944
11
143.3061329999999884
21
-91.8305340000000001
0
LINE
8
BLACK
6
CONTINUOUS
10
143.3061329999999884
20
-91.8305340000000001
11
143.2909089999999992
21
-91.907071000000002
0
LINE
8
BLACK
6
CONTINUOUS
10
143.2909089999999992
20
-91.907071000000002
11
143.2475539999999796
21
-91.9719549999999941
0
LINE
8
BLACK
6
CONTINUOUS
10
143.2475539999999796
20
-91.9719549999999941
11
143.1826700000000017
21
-92.0153099999999995
0
LINE
8
BLACK
6
CONTINUOUS
10
143.1826700000000017
20
-92.0153099999999995
11
143.1061329999999998
21
-92.0305339999999887
0
LINE
8
BLACK
6
CONTINUOUS
10
143.1061329999999998
20
-92.0305339999999887
11
142.5561329999999884
21
-92.0305339999999887
0
LINE
8
BLACK
6
CONTINUOUS
10
142.5561329999999884
20
-92.0305339999999887
11
142.4795959999999866
21
-92.0153099999999995
0
LINE
8
BLACK
6
CONTINUOUS
10
142.4795959999999866
20
-92.0153099999999995
11
142.4147119999999802
21
-91.9719549999999941
0
LINE
8
BLACK
6
CONTINUOUS
10
142.4147119999999802
20
-91.9719549999999941
11
142.3713569999999891
21
-91.907071000000002
0
LINE
8
BLACK
6
CONTINUOUS
10
142.3713569999999891
20
-91.907071000000002
11
142.3561329999999998
21
-91.8305340000000001
0
LINE
8
BLACK
6
CONTINUOUS
10
142.3561329999999998
20
-91.8305340000000001
11
142.3561329999999998
21
-91.4305339999999944
0
LINE
8
BLACK
6
CONTINUOUS
10
142.3561329999999998
20
-91.4305339999999944
11
142.3713569999999891
21
-91.3539969999999926
0
LINE
8
BLACK
6
CONTINUOUS
10
142.3713569999999891
20
-91.3539969999999926
11
142.4147119999999802
21
-91.2891130000000004
0
LINE
8
BLACK
6
CONTINUOUS
10
142.4147119999999802
20
-91.2891130000000004
11
142.4795959999999866
21
-91.245757999999995
0
LINE
8
BLACK
6
CONTINUOUS
10
142.4795959999999866
20
-91.245757999999995
11
142.5561329999999884
21
-91.2305339999999916
0
LINE
8
BLACK
6
CONTINUOUS
10
142.5561329999999884
20
-91.2305339999999916
11
143.1061329999999998
21
-91.2305339999999916
0
LINE
8
BLACK
6
CONTINUOUS
10
143.1061329999999998
20
-91.2305339999999916
11
143.1826700000000017
21
-91.245757999999995
0
LINE
8
BLACK
6
CONTINUOUS
10
144.847266999999988
20
-91.140285999999989
11
144.9182349999999815
21
-91.187704999999994
0
LINE
8
BLACK
6
CONTINUOUS
10
144.9182349999999815
20
-91.187704999999994
11
144.9656540000000007
21
-91.2586730000000017
0
LINE
8
BLACK
6
CONTINUOUS
10
144.9656540000000007
20
-91.2586730000000017
11
144.9823049999999967
21
-91.3423849999999931
0
LINE
8
BLACK
6
CONTINUOUS
10
144.9823049999999967
20
-91.3423849999999931
11
144.9823049999999967
21
-91.7798849999999931
0
LINE
8
BLACK
6
CONTINUOUS
10
144.9823049999999967
20
-91.7798849999999931
11
144.9656540000000007
21
-91.8635969999999986
0
LINE
8
BLACK
6
CONTINUOUS
10
144.9656540000000007
20
-91.8635969999999986
11
144.9182349999999815
21
-91.9345649999999921
0
LINE
8
BLACK
6
CONTINUOUS
10
144.9182349999999815
20
-91.9345649999999921
11
144.847266999999988
21
-91.9819839999999971
0
LINE
8
BLACK
6
CONTINUOUS
10
144.847266999999988
20
-91.9819839999999971
11
144.7635549999999967
21
-91.9986349999999931
0
LINE
8
BLACK
6
CONTINUOUS
10
144.7635549999999967
20
-91.9986349999999931
11
144.2510549999999796
21
-91.9986349999999931
0
LINE
8
BLACK
6
CONTINUOUS
10
144.2510549999999796
20
-91.9986349999999931
11
144.1673429999999883
21
-91.9819839999999971
0
LINE
8
BLACK
6
CONTINUOUS
10
144.1673429999999883
20
-91.9819839999999971
11
144.0963749999999948
21
-91.9345649999999921
0
LINE
8
BLACK
6
CONTINUOUS
10
144.0963749999999948
20
-91.9345649999999921
11
144.048956000000004
21
-91.8635969999999986
0
LINE
8
BLACK
6
CONTINUOUS
10
144.048956000000004
20
-91.8635969999999986
11
144.0323049999999796
21
-91.7798849999999931
0
LINE
8
BLACK
6
CONTINUOUS
10
144.0323049999999796
20
-91.7798849999999931
11
144.0323049999999796
21
-91.3423849999999931
0
LINE
8
BLACK
6
CONTINUOUS
10
144.0323049999999796
20
-91.3423849999999931
11
144.048956000000004
21
-91.2586730000000017
0
LINE
8
BLACK
6
CONTINUOUS
10
144.048956000000004
20
-91.2586730000000017
11
144.0963749999999948
21
-91.187704999999994
0
LINE
8
BLACK
6
CONTINUOUS
10
144.0963749999999948
20
-91.187704999999994
11
144.1673429999999883
21
-91.140285999999989
0
LINE
8
BLACK
6
CONTINUOUS
10
144.1673429999999883
20
-91.140285999999989
11
144.2510549999999796
21
-91.1236349999999931
0
LINE
8
BLACK
6
CONTINUOUS
10
144.2510549999999796
20
-91.1236349999999931
11
144.7635549999999967
21
-91.1236349999999931
0
LINE
8
BLACK
6
CONTINUOUS
10
144.7635549999999967
20
-91.1236349999999931
11
144.847266999999988
21
-91.140285999999989
0
LINE
8
BLACK
6
CONTINUOUS
10
151.2731689999999958
20
-91.4327759999999898
11
150.0731690000000071
21
-91.4327759999999898
0
LINE
8
BLACK
6
CONTINUOUS
10
150.0731690000000071
20
-91.4327759999999898
11
150.0731690000000071
21
-90.8327759999999955
0
LINE
8
BLACK
6
CONTINUOUS
10
150.0731690000000071
20
-90.8327759999999955
11
151.2731689999999958
21
-90.8327759999999955
0
LINE
8
BLACK
6
CONTINUOUS
10
151.2731689999999958
20
-90.8327759999999955
11
151.2731689999999958
21
-91.4327759999999898
0
LINE
8
BLACK
6
CONTINUOUS
10
157.093168999999989
20
-91.4327759999999898
11
155.8931690000000003
21
-91.4327759999999898
0
LINE
8
BLACK
6
CONTINUOUS
10
155.8931690000000003
20
-91.4327759999999898
11
155.8931690000000003
21
-90.8327759999999955
0
LINE
8
BLACK
6
CONTINUOUS
10
155.8931690000000003
20
-90.8327759999999955
11
157.093168999999989
21
-90.8327759999999955
0
LINE
8
BLACK
6
CONTINUOUS
10
157.093168999999989
20
-90.8327759999999955
11
157.093168999999989
21
-91.4327759999999898
0
LINE
8
BLACK
6
CONTINUOUS
10
148.6017159999999819
20
-89.9052989999999994
11
148.6747110000000021
21
-89.954072999999994
0
LINE
8
BLACK
6
CONTINUOUS
10
148.6747110000000021
20
-89.954072999999994
11
148.7234849999999824
21
-90.0270679999999999
0
LINE
8
BLACK
6
CONTINUOUS
10
148.7234849999999824
20
-90.0270679999999999
11
148.7406119999999987
21
-90.1131719999999916
0
LINE
8
BLACK
6
CONTINUOUS
10
148.7406119999999987
20
-90.1131719999999916
11
148.7406119999999987
21
-90.5631719999999945
0
LINE
8
BLACK
6
CONTINUOUS
10
148.7406119999999987
20
-90.5631719999999945
11
148.7234849999999824
21
-90.6492760000000004
0
LINE
8
BLACK
6
CONTINUOUS
10
148.7234849999999824
20
-90.6492760000000004
11
148.6747110000000021
21
-90.7222709999999921
0
LINE
8
BLACK
6
CONTINUOUS
10
148.6747110000000021
20
-90.7222709999999921
11
148.6017159999999819
21
-90.7710450000000009
0
LINE
8
BLACK
6
CONTINUOUS
10
148.6017159999999819
20
-90.7710450000000009
11
148.5156120000000044
21
-90.788172000000003
0
LINE
8
BLACK
6
CONTINUOUS
10
148.5156120000000044
20
-90.788172000000003
11
148.0156120000000044
21
-90.788172000000003
0
LINE
8
BLACK
6
CONTINUOUS
10
148.0156120000000044
20
-90.788172000000003
11
147.9295079999999984
21
-90.7710450000000009
0
LINE
8
BLACK
6
CONTINUOUS
10
147.9295079999999984
20
-90.7710450000000009
11
147.8565130000000067
21
-90.7222709999999921
0
LINE
8
BLACK
6
CONTINUOUS
10
147.8565130000000067
20
-90.7222709999999921
11
147.807738999999998
21
-90.6492760000000004
0
LINE
8
BLACK
6
CONTINUOUS
10
147.807738999999998
20
-90.6492760000000004
11
147.7906119999999817
21
-90.5631719999999945
0
LINE
8
BLACK
6
CONTINUOUS
10
147.7906119999999817
20
-90.5631719999999945
11
147.7906119999999817
21
-90.1131719999999916
0
LINE
8
BLACK
6
CONTINUOUS
10
147.7906119999999817
20
-90.1131719999999916
11
147.807738999999998
21
-90.0270679999999999
0
LINE
8
BLACK
6
CONTINUOUS
10
147.807738999999998
20
-90.0270679999999999
11
147.8565130000000067
21
-89.954072999999994
0
LINE
8
BLACK
6
CONTINUOUS
10
147.8565130000000067
20
-89.954072999999994
11
147.9295079999999984
21
-89.9052989999999994
0
LINE
8
BLACK
6
CONTINUOUS
10
147.9295079999999984
20
-89.9052989999999994
11
148.0156120000000044
21
-89.8881719999999973
0
LINE
8
BLACK
6
CONTINUOUS
10
148.0156120000000044
20
-89.8881719999999973
11
148.5156120000000044
21
-89.8881719999999973
0
LINE
8
BLACK
6
CONTINUOUS
10
148.5156120000000044
20
-89.8881719999999973
11
148.6017159999999819
21
-89.9052989999999994
0
LINE
8
BLACK
6
CONTINUOUS
10
157.4611019999999826
20
-89.7114880000000028
11
157.5340970000000027
21
-89.7602619999999973
0
LINE
8
BLACK
6
CONTINUOUS
10
157.5340970000000027
20
-89.7602619999999973
11
157.582870999999983
21
-89.833256999999989
0
LINE
8
BLACK
6
CONTINUOUS
10
157.582870999999983
20
-89.833256999999989
11
157.5999979999999994
21
-89.919360999999995
0
LINE
8
BLACK
6
CONTINUOUS
10
157.5999979999999994
20
-89.919360999999995
11
157.5999979999999994
21
-90.3693609999999978
0
LINE
8
BLACK
6
CONTINUOUS
10
157.5999979999999994
20
-90.3693609999999978
11
157.582870999999983
21
-90.4554649999999896
0
LINE
8
BLACK
6
CONTINUOUS
10
157.582870999999983
20
-90.4554649999999896
11
157.5340970000000027
21
-90.5284599999999955
0
LINE
8
BLACK
6
CONTINUOUS
10
157.5340970000000027
20
-90.5284599999999955
11
157.4611019999999826
21
-90.57723399999999
0
LINE
8
BLACK
6
CONTINUOUS
10
157.4611019999999826
20
-90.57723399999999
11
157.374998000000005
21
-90.5943609999999921
0
LINE
8
BLACK
6
CONTINUOUS
10
157.374998000000005
20
-90.5943609999999921
11
156.874998000000005
21
-90.5943609999999921
0
LINE
8
BLACK
6
CONTINUOUS
10
156.874998000000005
20
-90.5943609999999921
11
156.7888939999999991
21
-90.57723399999999
0
LINE
8
BLACK
6
CONTINUOUS
10
156.7888939999999991
20
-90.57723399999999
11
156.715898999999979
21
-90.5284599999999955
0
LINE
8
BLACK
6
CONTINUOUS
10
156.715898999999979
20
-90.5284599999999955
11
156.6671249999999986
21
-90.4554649999999896
0
LINE
8
BLACK
6
CONTINUOUS
10
156.6671249999999986
20
-90.4554649999999896
11
156.6499979999999823
21
-90.3693609999999978
0
LINE
8
BLACK
6
CONTINUOUS
10
156.6499979999999823
20
-90.3693609999999978
11
156.6499979999999823
21
-89.919360999999995
0
LINE
8
BLACK
6
CONTINUOUS
10
156.6499979999999823
20
-89.919360999999995
11
156.6671249999999986
21
-89.833256999999989
0
LINE
8
BLACK
6
CONTINUOUS
10
156.6671249999999986
20
-89.833256999999989
11
156.715898999999979
21
-89.7602619999999973
0
LINE
8
BLACK
6
CONTINUOUS
10
156.715898999999979
20
-89.7602619999999973
11
156.7888939999999991
21
-89.7114880000000028
0
LINE
8
BLACK
6
CONTINUOUS
10
156.7888939999999991
20
-89.7114880000000028
11
156.874998000000005
21
-89.6943610000000007
0
LINE
8
BLACK
6
CONTINUOUS
10
156.874998000000005
20
-89.6943610000000007
11
157.374998000000005
21
-89.6943610000000007
0
LINE
8
BLACK
6
CONTINUOUS
10
157.374998000000005
20
-89.6943610000000007
11
157.4611019999999826
21
-89.7114880000000028
0
LINE
8
BLACK
6
CONTINUOUS
10
146.8371319999999969
20
-89.5713349999999906
11
146.9162100000000066
21
-89.6241739999999965
0
LINE
8
BLACK
6
CONTINUOUS
10
146.9162100000000066
20
-89.6241739999999965
11
146.9690489999999841
21
-89.703251999999992
0
LINE
8
BLACK
6
CONTINUOUS
10
146.9690489999999841
20
-89.703251999999992
11
146.9876030000000071
21
-89.7965310000000017
0
LINE
8
BLACK
6
CONTINUOUS
10
146.9876030000000071
20
-89.7965310000000017
11
146.9876030000000071
21
-90.2840309999999988
0
LINE
8
BLACK
6
CONTINUOUS
10
146.9876030000000071
20
-90.2840309999999988
11
146.9690489999999841
21
-90.3773099999999943
0
LINE
8
BLACK
6
CONTINUOUS
10
146.9690489999999841
20
-90.3773099999999943
11
146.9162100000000066
21
-90.4563879999999898
0
LINE
8
BLACK
6
CONTINUOUS
10
146.9162100000000066
20
-90.4563879999999898
11
146.8371319999999969
21
-90.5092269999999957
0
LINE
8
BLACK
6
CONTINUOUS
10
146.8371319999999969
20
-90.5092269999999957
11
146.7438530000000014
21
-90.5277809999999903
0
LINE
8
BLACK
6
CONTINUOUS
10
146.7438530000000014
20
-90.5277809999999903
11
145.8313530000000071
21
-90.5277809999999903
0
LINE
8
BLACK
6
CONTINUOUS
10
145.8313530000000071
20
-90.5277809999999903
11
145.7380739999999832
21
-90.5092269999999957
0
LINE
8
BLACK
6
CONTINUOUS
10
145.7380739999999832
20
-90.5092269999999957
11
145.6589960000000019
21
-90.4563879999999898
0
LINE
8
BLACK
6
CONTINUOUS
10
145.6589960000000019
20
-90.4563879999999898
11
145.6061569999999961
21
-90.3773099999999943
0
LINE
8
BLACK
6
CONTINUOUS
10
145.6061569999999961
20
-90.3773099999999943
11
145.5876030000000014
21
-90.2840309999999988
0
LINE
8
BLACK
6
CONTINUOUS
10
145.5876030000000014
20
-90.2840309999999988
11
145.5876030000000014
21
-89.7965310000000017
0
LINE
8
BLACK
6
CONTINUOUS
10
145.5876030000000014
20
-89.7965310000000017
11
145.6061569999999961
21
-89.703251999999992
0
LINE
8
BLACK
6
CONTINUOUS
10
145.6061569999999961
20
-89.703251999999992
11
145.6589960000000019
21
-89.6241739999999965
0
LINE
8
BLACK
6
CONTINUOUS
10
145.6589960000000019
20
-89.6241739999999965
11
145.7380739999999832
21
-89.5713349999999906
0
LINE
8
BLACK
6
CONTINUOUS
10
145.7380739999999832
20
-89.5713349999999906
11
145.8313530000000071
21
-89.552780999999996
0
LINE
8
BLACK
6
CONTINUOUS
10
145.8313530000000071
20
-89.552780999999996
11
146.7438530000000014
21
-89.552780999999996
0
LINE
8
BLACK
6
CONTINUOUS
10
146.7438530000000014
20
-89.552780999999996
11
146.8371319999999969
21
-89.5713349999999906
0
LINE
8
BLACK
6
CONTINUOUS
10
144.847266999999988
20
-89.5652860000000004
11
144.9182349999999815
21
-89.6127049999999912
0
LINE
8
BLACK
6
CONTINUOUS
10
144.9182349999999815
20
-89.6127049999999912
11
144.9656540000000007
21
-89.6836729999999989
0
LINE
8
BLACK
6
CONTINUOUS
10
144.9656540000000007
20
-89.6836729999999989
11
144.9823049999999967
21
-89.7673849999999902
0
LINE
8
BLACK
6
CONTINUOUS
10
144.9823049999999967
20
-89.7673849999999902
11
144.9823049999999967
21
-90.2048849999999902
0
LINE
8
BLACK
6
CONTINUOUS
10
144.9823049999999967
20
-90.2048849999999902
11
144.9656540000000007
21
-90.2885969999999958
0
LINE
8
BLACK
6
CONTINUOUS
10
144.9656540000000007
20
-90.2885969999999958
11
144.9182349999999815
21
-90.3595649999999893
0
LINE
8
BLACK
6
CONTINUOUS
10
144.9182349999999815
20
-90.3595649999999893
11
144.847266999999988
21
-90.4069839999999942
0
LINE
8
BLACK
6
CONTINUOUS
10
144.847266999999988
20
-90.4069839999999942
11
144.7635549999999967
21
-90.4236349999999902
0
LINE
8
BLACK
6
CONTINUOUS
10
144.7635549999999967
20
-90.4236349999999902
11
144.2510549999999796
21
-90.4236349999999902
0
LINE
8
BLACK
6
CONTINUOUS
10
144.2510549999999796
20
-90.4236349999999902
11
144.1673429999999883
21
-90.4069839999999942
0
LINE
8
BLACK
6
CONTINUOUS
10
144.1673429999999883
20
-90.4069839999999942
11
144.0963749999999948
21
-90.3595649999999893
0
LINE
8
BLACK
6
CONTINUOUS
10
144.0963749999999948
20
-90.3595649999999893
11
144.048956000000004
21
-90.2885969999999958
0
LINE
8
BLACK
6
CONTINUOUS
10
144.048956000000004
20
-90.2885969999999958
11
144.0323049999999796
21
-90.2048849999999902
0
LINE
8
BLACK
6
CONTINUOUS
10
144.0323049999999796
20
-90.2048849999999902
11
144.0323049999999796
21
-89.7673849999999902
0
LINE
8
BLACK
6
CONTINUOUS
10
144.0323049999999796
20
-89.7673849999999902
11
144.048956000000004
21
-89.6836729999999989
0
LINE
8
BLACK
6
CONTINUOUS
10
144.048956000000004
20
-89.6836729999999989
11
144.0963749999999948
21
-89.6127049999999912
0
LINE
8
BLACK
6
CONTINUOUS
10
144.0963749999999948
20
-89.6127049999999912
11
144.1673429999999883
21
-89.5652860000000004
0
LINE
8
BLACK
6
CONTINUOUS
10
144.1673429999999883
20
-89.5652860000000004
11
144.2510549999999796
21
-89.5486349999999902
0
LINE
8
BLACK
6
CONTINUOUS
10
144.2510549999999796
20
-89.5486349999999902
11
144.7635549999999967
21
-89.5486349999999902
0
LINE
8
BLACK
6
CONTINUOUS
10
144.7635549999999967
20
-89.5486349999999902
11
144.847266999999988
21
-89.5652860000000004
0
LINE
8
BLACK
6
CONTINUOUS
10
141.6826700000000017
20
-89.5957579999999894
11
141.7475539999999796
21
-89.6391129999999947
0
LINE
8
BLACK
6
CONTINUOUS
10
141.7475539999999796
20
-89.6391129999999947
11
141.7909089999999992
21
-89.7039970000000011
0
LINE
8
BLACK
6
CONTINUOUS
10
141.7909089999999992
20
-89.7039970000000011
11
141.8061329999999884
21
-89.7805340000000029
0
LINE
8
BLACK
6
CONTINUOUS
10
141.8061329999999884
20
-89.7805340000000029
11
141.8061329999999884
21
-90.1805339999999944
0
LINE
8
BLACK
6
CONTINUOUS
10
141.8061329999999884
20
-90.1805339999999944
11
141.7909089999999992
21
-90.2570709999999963
0
LINE
8
BLACK
6
CONTINUOUS
10
141.7909089999999992
20
-90.2570709999999963
11
141.7475539999999796
21
-90.3219550000000027
0
LINE
8
BLACK
6
CONTINUOUS
10
141.7475539999999796
20
-90.3219550000000027
11
141.6826700000000017
21
-90.3653099999999938
0
LINE
8
BLACK
6
CONTINUOUS
10
141.6826700000000017
20
-90.3653099999999938
11
141.6061329999999998
21
-90.3805339999999973
0
LINE
8
BLACK
6
CONTINUOUS
10
141.6061329999999998
20
-90.3805339999999973
11
141.0561329999999884
21
-90.3805339999999973
0
LINE
8
BLACK
6
CONTINUOUS
10
141.0561329999999884
20
-90.3805339999999973
11
140.9795959999999866
21
-90.3653099999999938
0
LINE
8
BLACK
6
CONTINUOUS
10
140.9795959999999866
20
-90.3653099999999938
11
140.9147119999999802
21
-90.3219550000000027
0
LINE
8
BLACK
6
CONTINUOUS
10
140.9147119999999802
20
-90.3219550000000027
11
140.8713569999999891
21
-90.2570709999999963
0
LINE
8
BLACK
6
CONTINUOUS
10
140.8713569999999891
20
-90.2570709999999963
11
140.8561329999999998
21
-90.1805339999999944
0
LINE
8
BLACK
6
CONTINUOUS
10
140.8561329999999998
20
-90.1805339999999944
11
140.8561329999999998
21
-89.7805340000000029
0
LINE
8
BLACK
6
CONTINUOUS
10
140.8561329999999998
20
-89.7805340000000029
11
140.8713569999999891
21
-89.7039970000000011
0
LINE
8
BLACK
6
CONTINUOUS
10
140.8713569999999891
20
-89.7039970000000011
11
140.9147119999999802
21
-89.6391129999999947
0
LINE
8
BLACK
6
CONTINUOUS
10
140.9147119999999802
20
-89.6391129999999947
11
140.9795959999999866
21
-89.5957579999999894
0
LINE
8
BLACK
6
CONTINUOUS
10
140.9795959999999866
20
-89.5957579999999894
11
141.0561329999999884
21
-89.5805340000000001
0
LINE
8
BLACK
6
CONTINUOUS
10
141.0561329999999884
20
-89.5805340000000001
11
141.6061329999999998
21
-89.5805340000000001
0
LINE
8
BLACK
6
CONTINUOUS
10
141.6061329999999998
20
-89.5805340000000001
11
141.6826700000000017
21
-89.5957579999999894
0
LINE
8
BLACK
6
CONTINUOUS
10
143.1826700000000017
20
-89.5957579999999894
11
143.2475539999999796
21
-89.6391129999999947
0
LINE
8
BLACK
6
CONTINUOUS
10
143.2475539999999796
20
-89.6391129999999947
11
143.2909089999999992
21
-89.7039970000000011
0
LINE
8
BLACK
6
CONTINUOUS
10
143.2909089999999992
20
-89.7039970000000011
11
143.3061329999999884
21
-89.7805340000000029
0
LINE
8
BLACK
6
CONTINUOUS
10
143.3061329999999884
20
-89.7805340000000029
11
143.3061329999999884
21
-90.1805339999999944
0
LINE
8
BLACK
6
CONTINUOUS
10
143.3061329999999884
20
-90.1805339999999944
11
143.2909089999999992
21
-90.2570709999999963
0
LINE
8
BLACK
6
CONTINUOUS
10
143.2909089999999992
20
-90.2570709999999963
11
143.2475539999999796
21
-90.3219550000000027
0
LINE
8
BLACK
6
CONTINUOUS
10
143.2475539999999796
20
-90.3219550000000027
11
143.1826700000000017
21
-90.3653099999999938
0
LINE
8
BLACK
6
CONTINUOUS
10
143.1826700000000017
20
-90.3653099999999938
11
143.1061329999999998
21
-90.3805339999999973
0
LINE
8
BLACK
6
CONTINUOUS
10
143.1061329999999998
20
-90.3805339999999973
11
142.5561329999999884
21
-90.3805339999999973
0
LINE
8
BLACK
6
CONTINUOUS
10
142.5561329999999884
20
-90.3805339999999973
11
142.4795959999999866
21
-90.3653099999999938
0
LINE
8
BLACK
6
CONTINUOUS
10
142.4795959999999866
20
-90.3653099999999938
11
142.4147119999999802
21
-90.3219550000000027
0
LINE
8
BLACK
6
CONTINUOUS
10
142.4147119999999802
20
-90.3219550000000027
11
142.3713569999999891
21
-90.2570709999999963
0
LINE
8
BLACK
6
CONTINUOUS
10
142.3713569999999891
20
-90.2570709999999963
11
142.3561329999999998
21
-90.1805339999999944
0
LINE
8
BLACK
6
CONTINUOUS
10
142.3561329999999998
20
-90.1805339999999944
11
142.3561329999999998
21
-89.7805340000000029
0
LINE
8
BLACK
6
CONTINUOUS
10
142.3561329999999998
20
-89.7805340000000029
11
142.3713569999999891
21
-89.7039970000000011
0
LINE
8
BLACK
6
CONTINUOUS
10
142.3713569999999891
20
-89.7039970000000011
11
142.4147119999999802
21
-89.6391129999999947
0
LINE
8
BLACK
6
CONTINUOUS
10
142.4147119999999802
20
-89.6391129999999947
11
142.4795959999999866
21
-89.5957579999999894
0
LINE
8
BLACK
6
CONTINUOUS
10
142.4795959999999866
20
-89.5957579999999894
11
142.5561329999999884
21
-89.5805340000000001
0
LINE
8
BLACK
6
CONTINUOUS
10
142.5561329999999884
20
-89.5805340000000001
11
143.1061329999999998
21
-89.5805340000000001
0
LINE
8
BLACK
6
CONTINUOUS
10
143.1061329999999998
20
-89.5805340000000001
11
143.1826700000000017
21
-89.5957579999999894
0
LINE
8
BLACK
6
CONTINUOUS
10
152.7689089999999794
20
-90.1824939999999913
11
149.2689089999999794
21
-90.1824939999999913
0
LINE
8
BLACK
6
CONTINUOUS
10
149.2689089999999794
20
-90.1824939999999913
11
149.2689089999999794
21
-87.832493999999997
0
LINE
8
BLACK
6
CONTINUOUS
10
149.2689089999999794
20
-87.832493999999997
11
152.7689089999999794
21
-87.832493999999997
0
LINE
8
BLACK
6
CONTINUOUS
10
152.7689089999999794
20
-87.832493999999997
11
152.7689089999999794
21
-90.1824939999999913
0
LINE
8
BLACK
6
CONTINUOUS
10
157.4611019999999826
20
-88.1614879999999914
11
157.5340970000000027
21
-88.2102620000000002
0
LINE
8
BLACK
6
CONTINUOUS
10
157.5340970000000027
20
-88.2102620000000002
11
157.582870999999983
21
-88.2832569999999919
0
LINE
8
BLACK
6
CONTINUOUS
10
157.582870999999983
20
-88.2832569999999919
11
157.5999979999999994
21
-88.3693609999999978
0
LINE
8
BLACK
6
CONTINUOUS
10
157.5999979999999994
20
-88.3693609999999978
11
157.5999979999999994
21
-88.8193610000000007
0
LINE
8
BLACK
6
CONTINUOUS
10
157.5999979999999994
20
-88.8193610000000007
11
157.582870999999983
21
-88.9054649999999924
0
LINE
8
BLACK
6
CONTINUOUS
10
157.582870999999983
20
-88.9054649999999924
11
157.5340970000000027
21
-88.9784599999999983
0
LINE
8
BLACK
6
CONTINUOUS
10
157.5340970000000027
20
-88.9784599999999983
11
157.4611019999999826
21
-89.0272339999999929
0
LINE
8
BLACK
6
CONTINUOUS
10
157.4611019999999826
20
-89.0272339999999929
11
157.374998000000005
21
-89.044360999999995
0
LINE
8
BLACK
6
CONTINUOUS
10
157.374998000000005
20
-89.044360999999995
11
156.874998000000005
21
-89.044360999999995
0
LINE
8
BLACK
6
CONTINUOUS
10
156.874998000000005
20
-89.044360999999995
11
156.7888939999999991
21
-89.0272339999999929
0
LINE
8
BLACK
6
CONTINUOUS
10
156.7888939999999991
20
-89.0272339999999929
11
156.715898999999979
21
-88.9784599999999983
0
LINE
8
BLACK
6
CONTINUOUS
10
156.715898999999979
20
-88.9784599999999983
11
156.6671249999999986
21
-88.9054649999999924
0
LINE
8
BLACK
6
CONTINUOUS
10
156.6671249999999986
20
-88.9054649999999924
11
156.6499979999999823
21
-88.8193610000000007
0
LINE
8
BLACK
6
CONTINUOUS
10
156.6499979999999823
20
-88.8193610000000007
11
156.6499979999999823
21
-88.3693609999999978
0
LINE
8
BLACK
6
CONTINUOUS
10
156.6499979999999823
20
-88.3693609999999978
11
156.6671249999999986
21
-88.2832569999999919
0
LINE
8
BLACK
6
CONTINUOUS
10
156.6671249999999986
20
-88.2832569999999919
11
156.715898999999979
21
-88.2102620000000002
0
LINE
8
BLACK
6
CONTINUOUS
10
156.715898999999979
20
-88.2102620000000002
11
156.7888939999999991
21
-88.1614879999999914
0
LINE
8
BLACK
6
CONTINUOUS
10
156.7888939999999991
20
-88.1614879999999914
11
156.874998000000005
21
-88.1443609999999893
0
LINE
8
BLACK
6
CONTINUOUS
10
156.874998000000005
20
-88.1443609999999893
11
157.374998000000005
21
-88.1443609999999893
0
LINE
8
BLACK
6
CONTINUOUS
10
157.374998000000005
20
-88.1443609999999893
11
157.4611019999999826
21
-88.1614879999999914
0
LINE
8
BLACK
6
CONTINUOUS
10
139.7244660000000067
20
-88.8100000000000023
11
138.9244659999999953
21
-88.8100000000000023
0
LINE
8
BLACK
6
CONTINUOUS
10
138.9244659999999953
20
-88.8100000000000023
11
138.9244659999999953
21
-87.6099999999999994
0
LINE
8
BLACK
6
CONTINUOUS
10
138.9244659999999953
20
-87.6099999999999994
11
139.7244660000000067
21
-87.6099999999999994
0
LINE
8
BLACK
6
CONTINUOUS
10
139.7244660000000067
20
-87.6099999999999994
11
139.7244660000000067
21
-88.8100000000000023
0
LINE
8
BLACK
6
CONTINUOUS
10
140.9344659999999863
20
-88.8100000000000023
11
140.1744659999999953
21
-88.8100000000000023
0
LINE
8
BLACK
6
CONTINUOUS
10
140.1744659999999953
20
-88.8100000000000023
11
140.1744659999999953
21
-87.6099999999999994
0
LINE
8
BLACK
6
CONTINUOUS
10
140.1744659999999953
20
-87.6099999999999994
11
140.9344659999999863
21
-87.6099999999999994
0
LINE
8
BLACK
6
CONTINUOUS
10
140.9344659999999863
20
-87.6099999999999994
11
140.9344659999999863
21
-88.8100000000000023
0
LINE
8
BLACK
6
CONTINUOUS
10
141.9244659999999953
20
-88.8100000000000023
11
141.2244660000000067
21
-88.8100000000000023
0
LINE
8
BLACK
6
CONTINUOUS
10
141.2244660000000067
20
-88.8100000000000023
11
141.2244660000000067
21
-87.6099999999999994
0
LINE
8
BLACK
6
CONTINUOUS
10
141.2244660000000067
20
-87.6099999999999994
11
141.9244659999999953
21
-87.6099999999999994
0
LINE
8
BLACK
6
CONTINUOUS
10
141.9244659999999953
20
-87.6099999999999994
11
141.9244659999999953
21
-88.8100000000000023
0
LINE
8
BLACK
6
CONTINUOUS
10
142.9244659999999953
20
-88.8100000000000023
11
142.2244660000000067
21
-88.8100000000000023
0
LINE
8
BLACK
6
CONTINUOUS
10
142.2244660000000067
20
-88.8100000000000023
11
142.2244660000000067
21
-87.6099999999999994
0
LINE
8
BLACK
6
CONTINUOUS
10
142.2244660000000067
20
-87.6099999999999994
11
142.9244659999999953
21
-87.6099999999999994
0
LINE
8
BLACK
6
CONTINUOUS
10
142.9244659999999953
20
-87.6099999999999994
11
142.9244659999999953
21
-88.8100000000000023
0
LINE
8
BLACK
6
CONTINUOUS
10
143.9744660000000067
20
-88.8100000000000023
11
143.2144659999999874
21
-88.8100000000000023
0
LINE
8
BLACK
6
CONTINUOUS
10
143.2144659999999874
20
-88.8100000000000023
11
143.2144659999999874
21
-87.6099999999999994
0
LINE
8
BLACK
6
CONTINUOUS
10
143.2144659999999874
20
-87.6099999999999994
11
143.9744660000000067
21
-87.6099999999999994
0
LINE
8
BLACK
6
CONTINUOUS
10
143.9744660000000067
20
-87.6099999999999994
11
143.9744660000000067
21
-88.8100000000000023
0
LINE
8
BLACK
6
CONTINUOUS
10
145.2244660000000067
20
-88.8100000000000023
11
144.4244659999999953
21
-88.8100000000000023
0
LINE
8
BLACK
6
CONTINUOUS
10
144.4244659999999953
20
-88.8100000000000023
11
144.4244659999999953
21
-87.6099999999999994
0
LINE
8
BLACK
6
CONTINUOUS
10
144.4244659999999953
20
-87.6099999999999994
11
145.2244660000000067
21
-87.6099999999999994
0
LINE
8
BLACK
6
CONTINUOUS
10
145.2244660000000067
20
-87.6099999999999994
11
145.2244660000000067
21
-88.8100000000000023
0
LINE
8
BLACK
6
CONTINUOUS
10
159.3045669999999916
20
-86.1335929999999905
11
159.369450999999998
21
-86.1769479999999959
0
LINE
8
BLACK
6
CONTINUOUS
10
159.369450999999998
20
-86.1769479999999959
11
159.4128059999999891
21
-86.2418320000000023
0
LINE
8
BLACK
6
CONTINUOUS
10
159.4128059999999891
20
-86.2418320000000023
11
159.4280300000000068
21
-86.3183689999999899
0
LINE
8
BLACK
6
CONTINUOUS
10
159.4280300000000068
20
-86.3183689999999899
11
159.4280300000000068
21
-86.8683690000000013
0
LINE
8
BLACK
6
CONTINUOUS
10
159.4280300000000068
20
-86.8683690000000013
11
159.4128059999999891
21
-86.9449060000000031
0
LINE
8
BLACK
6
CONTINUOUS
10
159.4128059999999891
20
-86.9449060000000031
11
159.369450999999998
21
-87.0097899999999953
0
LINE
8
BLACK
6
CONTINUOUS
10
159.369450999999998
20
-87.0097899999999953
11
159.3045669999999916
21
-87.0531450000000007
0
LINE
8
BLACK
6
CONTINUOUS
10
159.3045669999999916
20
-87.0531450000000007
11
159.2280299999999897
21
-87.0683689999999899
0
LINE
8
BLACK
6
CONTINUOUS
10
159.2280299999999897
20
-87.0683689999999899
11
158.8280299999999841
21
-87.0683689999999899
0
LINE
8
BLACK
6
CONTINUOUS
10
158.8280299999999841
20
-87.0683689999999899
11
158.7514929999999822
21
-87.0531450000000007
0
LINE
8
BLACK
6
CONTINUOUS
10
158.7514929999999822
20
-87.0531450000000007
11
158.6866090000000042
21
-87.0097899999999953
0
LINE
8
BLACK
6
CONTINUOUS
10
158.6866090000000042
20
-87.0097899999999953
11
158.6432539999999847
21
-86.9449060000000031
0
LINE
8
BLACK
6
CONTINUOUS
10
158.6432539999999847
20
-86.9449060000000031
11
158.6280299999999954
21
-86.8683690000000013
0
LINE
8
BLACK
6
CONTINUOUS
10
158.6280299999999954
20
-86.8683690000000013
11
158.6280299999999954
21
-86.3183689999999899
0
LINE
8
BLACK
6
CONTINUOUS
10
158.6280299999999954
20
-86.3183689999999899
11
158.6432539999999847
21
-86.2418320000000023
0
LINE
8
BLACK
6
CONTINUOUS
10
158.6432539999999847
20
-86.2418320000000023
11
158.6866090000000042
21
-86.1769479999999959
0
LINE
8
BLACK
6
CONTINUOUS
10
158.6866090000000042
20
-86.1769479999999959
11
158.7514929999999822
21
-86.1335929999999905
0
LINE
8
BLACK
6
CONTINUOUS
10
158.7514929999999822
20
-86.1335929999999905
11
158.8280299999999841
21
-86.1183690000000013
0
LINE
8
BLACK
6
CONTINUOUS
10
158.8280299999999841
20
-86.1183690000000013
11
159.2280299999999897
21
-86.1183690000000013
0
LINE
8
BLACK
6
CONTINUOUS
10
159.2280299999999897
20
-86.1183690000000013
11
159.3045669999999916
21
-86.1335929999999905
0
LINE
8
BLACK
6
CONTINUOUS
10
160.9545669999999973
20
-86.1335929999999905
11
161.0194510000000037
21
-86.1769479999999959
0
LINE
8
BLACK
6
CONTINUOUS
10
161.0194510000000037
20
-86.1769479999999959
11
161.0628059999999948
21
-86.2418320000000023
0
LINE
8
BLACK
6
CONTINUOUS
10
161.0628059999999948
20
-86.2418320000000023
11
161.0780299999999841
21
-86.3183689999999899
0
LINE
8
BLACK
6
CONTINUOUS
10
161.0780299999999841
20
-86.3183689999999899
11
161.0780299999999841
21
-86.8683690000000013
0
LINE
8
BLACK
6
CONTINUOUS
10
161.0780299999999841
20
-86.8683690000000013
11
161.0628059999999948
21
-86.9449060000000031
0
LINE
8
BLACK
6
CONTINUOUS
10
161.0628059999999948
20
-86.9449060000000031
11
161.0194510000000037
21
-87.0097899999999953
0
LINE
8
BLACK
6
CONTINUOUS
10
161.0194510000000037
20
-87.0097899999999953
11
160.9545669999999973
21
-87.0531450000000007
0
LINE
8
BLACK
6
CONTINUOUS
10
160.9545669999999973
20
-87.0531450000000007
11
160.8780299999999954
21
-87.0683689999999899
0
LINE
8
BLACK
6
CONTINUOUS
10
160.8780299999999954
20
-87.0683689999999899
11
160.4780299999999897
21
-87.0683689999999899
0
LINE
8
BLACK
6
CONTINUOUS
10
160.4780299999999897
20
-87.0683689999999899
11
160.4014929999999879
21
-87.0531450000000007
0
LINE
8
BLACK
6
CONTINUOUS
10
160.4014929999999879
20
-87.0531450000000007
11
160.3366089999999815
21
-87.0097899999999953
0
LINE
8
BLACK
6
CONTINUOUS
10
160.3366089999999815
20
-87.0097899999999953
11
160.2932539999999904
21
-86.9449060000000031
0
LINE
8
BLACK
6
CONTINUOUS
10
160.2932539999999904
20
-86.9449060000000031
11
160.2780300000000011
21
-86.8683690000000013
0
LINE
8
BLACK
6
CONTINUOUS
10
160.2780300000000011
20
-86.8683690000000013
11
160.2780300000000011
21
-86.3183689999999899
0
LINE
8
BLACK
6
CONTINUOUS
10
160.2780300000000011
20
-86.3183689999999899
11
160.2932539999999904
21
-86.2418320000000023
0
LINE
8
BLACK
6
CONTINUOUS
10
160.2932539999999904
20
-86.2418320000000023
11
160.3366089999999815
21
-86.1769479999999959
0
LINE
8
BLACK
6
CONTINUOUS
10
160.3366089999999815
20
-86.1769479999999959
11
160.4014929999999879
21
-86.1335929999999905
0
LINE
8
BLACK
6
CONTINUOUS
10
160.4014929999999879
20
-86.1335929999999905
11
160.4780299999999897
21
-86.1183690000000013
0
LINE
8
BLACK
6
CONTINUOUS
10
160.4780299999999897
20
-86.1183690000000013
11
160.8780299999999954
21
-86.1183690000000013
0
LINE
8
BLACK
6
CONTINUOUS
10
160.8780299999999954
20
-86.1183690000000013
11
160.9545669999999973
21
-86.1335929999999905
0
LINE
8
BLACK
6
CONTINUOUS
10
157.0172509999999875
20
-83.1553399999999954
11
157.0983569999999929
21
-83.2095329999999933
0
LINE
8
BLACK
6
CONTINUOUS
10
157.0983569999999929
20
-83.2095329999999933
11
157.1525499999999909
21
-83.2906389999999988
0
LINE
8
BLACK
6
CONTINUOUS
10
157.1525499999999909
20
-83.2906389999999988
11
157.1715800000000058
21
-83.3863099999999946
0
LINE
8
BLACK
6
CONTINUOUS
10
157.1715800000000058
20
-83.3863099999999946
11
157.1715800000000058
21
-84.6863099999999918
0
LINE
8
BLACK
6
CONTINUOUS
10
157.1715800000000058
20
-84.6863099999999918
11
157.1525499999999909
21
-84.7819810000000018
0
LINE
8
BLACK
6
CONTINUOUS
10
157.1525499999999909
20
-84.7819810000000018
11
157.0983569999999929
21
-84.8630869999999931
0
LINE
8
BLACK
6
CONTINUOUS
10
157.0983569999999929
20
-84.8630869999999931
11
157.0172509999999875
21
-84.917279999999991
0
LINE
8
BLACK
6
CONTINUOUS
10
157.0172509999999875
20
-84.917279999999991
11
156.9215800000000058
21
-84.9363099999999918
0
LINE
8
BLACK
6
CONTINUOUS
10
156.9215800000000058
20
-84.9363099999999918
11
154.9215800000000058
21
-84.9363099999999918
0
LINE
8
BLACK
6
CONTINUOUS
10
154.9215800000000058
20
-84.9363099999999918
11
154.8259089999999958
21
-84.917279999999991
0
LINE
8
BLACK
6
CONTINUOUS
10
154.8259089999999958
20
-84.917279999999991
11
154.7448029999999903
21
-84.8630869999999931
0
LINE
8
BLACK
6
CONTINUOUS
10
154.7448029999999903
20
-84.8630869999999931
11
154.6906099999999924
21
-84.7819810000000018
0
LINE
8
BLACK
6
CONTINUOUS
10
154.6906099999999924
20
-84.7819810000000018
11
154.6715800000000058
21
-84.6863099999999918
0
LINE
8
BLACK
6
CONTINUOUS
10
154.6715800000000058
20
-84.6863099999999918
11
154.6715800000000058
21
-83.3863099999999946
0
LINE
8
BLACK
6
CONTINUOUS
10
154.6715800000000058
20
-83.3863099999999946
11
154.6906099999999924
21
-83.2906389999999988
0
LINE
8
BLACK
6
CONTINUOUS
10
154.6906099999999924
20
-83.2906389999999988
11
154.7448029999999903
21
-83.2095329999999933
0
LINE
8
BLACK
6
CONTINUOUS
10
154.7448029999999903
20
-83.2095329999999933
11
154.8259089999999958
21
-83.1553399999999954
0
LINE
8
BLACK
6
CONTINUOUS
10
154.8259089999999958
20
-83.1553399999999954
11
154.9215800000000058
21
-83.1363099999999946
0
LINE
8
BLACK
6
CONTINUOUS
10
154.9215800000000058
20
-83.1363099999999946
11
156.9215800000000058
21
-83.1363099999999946
0
LINE
8
BLACK
6
CONTINUOUS
10
156.9215800000000058
20
-83.1363099999999946
11
157.0172509999999875
21
-83.1553399999999954
0
LINE
8
BLACK
6
CONTINUOUS
10
161.0172509999999875
20
-83.1553399999999954
11
161.0983569999999929
21
-83.2095329999999933
0
LINE
8
BLACK
6
CONTINUOUS
10
161.0983569999999929
20
-83.2095329999999933
11
161.1525499999999909
21
-83.2906389999999988
0
LINE
8
BLACK
6
CONTINUOUS
10
161.1525499999999909
20
-83.2906389999999988
11
161.1715800000000058
21
-83.3863099999999946
0
LINE
8
BLACK
6
CONTINUOUS
10
161.1715800000000058
20
-83.3863099999999946
11
161.1715800000000058
21
-84.6863099999999918
0
LINE
8
BLACK
6
CONTINUOUS
10
161.1715800000000058
20
-84.6863099999999918
11
161.1525499999999909
21
-84.7819810000000018
0
LINE
8
BLACK
6
CONTINUOUS
10
161.1525499999999909
20
-84.7819810000000018
11
161.0983569999999929
21
-84.8630869999999931
0
LINE
8
BLACK
6
CONTINUOUS
10
161.0983569999999929
20
-84.8630869999999931
11
161.0172509999999875
21
-84.917279999999991
0
LINE
8
BLACK
6
CONTINUOUS
10
161.0172509999999875
20
-84.917279999999991
11
160.9215800000000058
21
-84.9363099999999918
0
LINE
8
BLACK
6
CONTINUOUS
10
160.9215800000000058
20
-84.9363099999999918
11
158.9215800000000058
21
-84.9363099999999918
0
LINE
8
BLACK
6
CONTINUOUS
10
158.9215800000000058
20
-84.9363099999999918
11
158.8259089999999958
21
-84.917279999999991
0
LINE
8
BLACK
6
CONTINUOUS
10
158.8259089999999958
20
-84.917279999999991
11
158.7448029999999903
21
-84.8630869999999931
0
LINE
8
BLACK
6
CONTINUOUS
10
158.7448029999999903
20
-84.8630869999999931
11
158.6906099999999924
21
-84.7819810000000018
0
LINE
8
BLACK
6
CONTINUOUS
10
158.6906099999999924
20
-84.7819810000000018
11
158.6715800000000058
21
-84.6863099999999918
0
LINE
8
BLACK
6
CONTINUOUS
10
158.6715800000000058
20
-84.6863099999999918
11
158.6715800000000058
21
-83.3863099999999946
0
LINE
8
BLACK
6
CONTINUOUS
10
158.6715800000000058
20
-83.3863099999999946
11
158.6906099999999924
21
-83.2906389999999988
0
LINE
8
BLACK
6
CONTINUOUS
10
158.6906099999999924
20
-83.2906389999999988
11
158.7448029999999903
21
-83.2095329999999933
0
LINE
8
BLACK
6
CONTINUOUS
10
158.7448029999999903
20
-83.2095329999999933
11
158.8259089999999958
21
-83.1553399999999954
0
LINE
8
BLACK
6
CONTINUOUS
10
158.8259089999999958
20
-83.1553399999999954
11
158.9215800000000058
21
-83.1363099999999946
0
LINE
8
BLACK
6
CONTINUOUS
10
158.9215800000000058
20
-83.1363099999999946
11
160.9215800000000058
21
-83.1363099999999946
0
LINE
8
BLACK
6
CONTINUOUS
10
160.9215800000000058
20
-83.1363099999999946
11
161.0172509999999875
21
-83.1553399999999954
0
LINE
8
BLACK
6
CONTINUOUS
10
152.7689089999999794
20
-84.4824940000000026
11
149.2689089999999794
21
-84.4824940000000026
0
LINE
8
BLACK
6
CONTINUOUS
10
149.2689089999999794
20
-84.4824940000000026
11
149.2689089999999794
21
-82.1324939999999941
0
LINE
8
BLACK
6
CONTINUOUS
10
149.2689089999999794
20
-82.1324939999999941
11
152.7689089999999794
21
-82.1324939999999941
0
LINE
8
BLACK
6
CONTINUOUS
10
152.7689089999999794
20
-82.1324939999999941
11
152.7689089999999794
21
-84.4824940000000026
  0
ENDSEC
  0
EOF
